Song name
# A B C D E F G H I J K L M N O P Q R S T U V W X Y Z

Stick To Your Guns - This Is Where My Heart Lies tab

"This Is Where My Heart Lies"
by Stick To Your Guns


INTRO X4
D|------------------------------------------|
A|------------------------------------------|
F|----7/8\7----5/7\5------------------------|
C|-00-x/x\x-00-x/x\x-00-3h0-1h03h0-00001111-|
G|-00-5/6\5-00-3/5\3-00-3h0-1h03h0-00001111-|
C|-00-------00-------00-3h0-1h03h0-00001111-|
   ..       ..       ..            ........

(I will stay true to this...)
D|--------------------------------|
A|--------------------------------|
F|--------------------------------| (then intro again x2)
C|-00-00-00-00-1h03h0-00001111--x2|
G|-00-00-00-00-1h03h0-00001111----|
C|-00-00-00-00-1h03h0-00001111----|
   .. .. .. ..        ........

(say what you will) 
D|-----------------------|---------------------------------------|--------------------0~-|
A|-----------------------|---------------------------------------|--------------------0~-|
F|-----------------------|---------------------------------------|--------------------0~-|
C|-0~000~0000~000000--x4-|-0~000~0000~000000-0~000~001310131--x4-|-0~-\\\PICKSLIDE\\--0~-|
G|-0~000~0000~000000-----|-0~000~0000~000000-0~000~001310131-----|-0~--\\\\\\\\\\\\\\-0~-|
C|-0~000~0000~000000-----|-0~000~0000~000000-0~000~001310131-----|-0~-----------------0~-|
   . ... .... ......       . ... .... ...... . ... .........  

(this is mine, this is for me)    (be strong...)
D|------------------------------|---------------------|
A|------------------------------|---------------------|
F|-7/8-3h0-------7\555----------|---------------------| (back to intro)
C|-x/x-xhx-00000-x\xxx-3322--x6-|-01313100-000-00--x8-|  
G|-5/6-1h0-00000-5\333-3322-----|-01313100-000-00-----|
C|---------00000-------3322-----|-01313100-000-00-----|
           .....                  ........ ... ..

(THIS IS WHERE MY HEART LIES)
D|----------|--------------------------|-----------------------|
A|----------|--------------------------|-----------------------|
F|----------|--------------------------|-----------------------|
C|-0~~0~~0X-|-000-0000-000-000-000--x4-|-000~-x8-000-000~~-\\\-|
G|-0~~0~~0X-|-000-0000-000-000-000-----|-000~----000-000~~-\\\-|
C|-0~~0~~0X-|-000-0000-000-000-000-----|-000~----000-000~~-\\\-|
              ... .... ... ... ...       ...     ... ..

           
Tap to rate this tab
# A B C D E F G H I J K L M N O P Q R S T U V W X Y Z