Song name
# A B C D E F G H I J K L M N O P Q R S T U V W X Y Z

Stick To Your Guns - We Still Believe Acoustic tab

This is my first tab, I learned this song by ear and I think it's mostly right. I 
couldn't figure out the bridge part but I will get to that.

Standard Tuning

U=Upstroke
D=Downstroke
*=Palm Mute

Intro/Chorus
e|------------------------------------------------------------------------------|
B|-0---0-0--0-0-0--0-0-0--0-0---------0---0-0--0-0-0--0-0-0--0-0----------------|
G|-9---9-9--9-9-9--9-9-9--9-9---------0---0-0--0-0-0--0-0-0--0-0----------------|
D|-9---9-9--9-9-9--9-9-9--9-9---------7---7-7--7-7-7--7-7-7--7-7----------------|
A|-7---7-7--7-7-7--7-7-7--7-7---------5---5-5--5-5-5--5-5-5--5-5----------------|
E|-0---0-0--0-0-0--0-0-0--0-0---------3---3-3--3-3-3--3-3-3--3-3----------------|
   D   U D  D U D  D U D  D U         D   U D  D U D  D U D  D U

e|------------------------------------------------------------------------|
B|-0---0-0--0-0-0--0-0-0--0-0---------0---0-0--0-0-0--0-0-0--0-0----------|
G|-0---0-0--0-0-0--0-0-0--0-0---------0---0-0--0-0-0--0-0-0--0-0----------|2x
D|12--1212-121212-121212-1212---------9---9-9--9-9-9--9-9-9--9-9----------|
A|10--1010-101010-101010-1010---------7---7-7--7-7-7--7-7-7--7-7----------|
E|-8---8-8--8-8-8--8-8-8--8-8---------5---5-5--5-5-5--5-5-5--5-5----------|
   D   U D  D U D  D U D  D U         D   U D  D U D  D U D  D U

Verse
        I'm sick and tired of all this giving up
e|--------------------------------------------------------------------------|
B|-0------------------------------------------------------------------------|
G|-9------------------------------------------------------------------------|
D|-9---9--9--9--9--9--9--9--9--9--9--9--9--9--9--9--9-----------------------|
A|-7---7--7--7--7--7--7--7--7--7--7--7--7--7--7--7--7-----------------------|
E|-0---0--0--0--0--0--0--0--0--0--0--0--0--0--0--0--0-----------------------|
       *  *  *  *  *  *  *  *  *  *  *  *  *  *  *  *
         All I hear is talk and I've had enough
e|--------------------------------------------------------------------------|
B|--------------------------------------------------------------------------|
G|--------------------------------------------------------------------------|
D|-7---7--7--7--7--7--7--7--7--7--7--7--7--7--7--7--7-----------------------|
A|-5---5--5--5--5--5--5--5--5--5--5--5--5--5--5--5--5-----------------------|
E|-3---3--3--3--3--3--3--3--3--3--3--3--3--3--3--3--3-----------------------|
       *  *  *  *  *  *  *  *  *  *  *  *  *  *  *  *
                     Single minded
e|--------------------------------------------------------------------------|
B|--------------------------------------------------------------------------|
G|--------------------------------------------------------------------------|
D|12--12-12-12-12-12-12-12-12-12-12-12-12-12-12-12-12-----------------------|
A|10--10-10-10-10-10-10-10-10-10-10-10-10-10-10-10-10-----------------------|
E|-8---8--8--8--8--8--8--8--8--8--8--8--8--8--8--8--8-----------------------|
       *  *  *  *  *  *  *  *  *  *  *  *  *  *  *  *
                 Overwhelmingly one sided
e|------------------------------------------------------------------------|
B|------------------------------------------------------------------------|
G|------------------------------------------------------------------------|2x
D|-9---9--9--9--9--9--9--9--9--9--9--9--9--9--9--9--9---------------------|
A|-7---7--7--7--7--7--7--7--7--7--7--7--7--7--7--7--7---------------------|
E|-5---5--5--5--5--5--5--5--5--5--5--5--5--5--5--5--5---------------------|
       *  *  *  *  *  *  *  *  *  *  *  *  *  *  *  *
Repeat Intro for Chorus
Repeat Verse
Repeat Chorus
Bridge: Coming soon
Repeat Chorus
Tap to rate this tab
 
# A B C D E F G H I J K L M N O P Q R S T U V W X Y Z