Song name
# A B C D E F G H I J K L M N O P Q R S T U V W X Y Z

Stick To Your Guns - Some Kind Of Hope tab

this is my version of stick to your guns - some kind of hope. i've seen that no one 
tabbed it out yet so
i decided to do the intro.. its not alright, especially the last part doesn't really 
fit, im going to fix this sometime.

************************************

| /   slide up
| \   slide down
| h   hammer-on
| p   pull-off
| ~   vibrato
| +   harmonic
| x   Mute note
| b   Bend
| pb  Pre-bend
| br  Bend release
| pbr Pre-bend release
| brb Bend release bend

************************************

amp settings: high gain, low drive presence, low treble

*let ring through out

e|---------------------------------------------------------------------------|
B|---------------------------------------------------------------------------|
G|---------------------------------------------------------------------------|
D|--------3-----3-----------------------3-----3--------0--2--3--2--0---------|
A|-----5-----5-----------------------5-----5--------------------------3------|
D|--0-----------------------------0------------------------------------------|

e|---------------------------------------------------------------------------|
B|---------------------------------------------------------------------------|
G|-----------------------------------------------------------7---------------|
D|--------2-----3-----------------------3-----3--------------7---------------|
A|-----3-----3-----------------------5-----5-----------------5---------------|
D|--3-----------------------------5-----------------0--3--0--5---------------|
Tap to rate this tab
# A B C D E F G H I J K L M N O P Q R S T U V W X Y Z