Song name
# A B C D E F G H I J K L M N O P Q R S T U V W X Y Z

Stick To Your Guns - This Is More tab

"This is More"
by: Stick to you Guns

their site: www.myspace.com/styg
they are signed under process records

this is a real good song
so i tabbed it.
-brandon


Guitar 1
D|-------|
A|-------|
F|-7777--|
C|-7777--|
G|-5555--|
C|-------|


Guitar 1
D|--------------------------------------------------------------|
A|--------------------------------------------------------------|
F|-7777---------7777------------7777---------1010101010/9999999-|
C|-7777---------7777------------7777----------x-x-x-x-x/xxxxxxx-|
G|-5555---------5555-000-000-0005555----------8-8-8-8-8/8888888-|
C|-------------------000-000-000--------------------------------|
|
Guitar 2
D|--------------------------------------------------------------|
A|--------------------------------------------------------------|
F|--------------------------------------------------------------|
C|-7777--------7777-000-000-0007777---------3333333333377777777-|
G|-7777--------7777-000-000-0007777---------3333333333377777777-|
C|-7777--------7777-000-000-0007777---------3333333333377777777-|


Guitar 1
D|---------------------------------------------------------------|
A|---------------------------------------------------------------|
F|-7777---------7777------------7777---------1010101010/9999\10~-|
C|-7777---------7777------------7777----------x-x-x-x-x-xxxx--x--|
G|-5555---------5555-000-000-0005555----------8-8-8-8-8/7777\-8~-|
C|-------------------000-000-000---------------------------------|
|
Guitar 2
D|--------------------------------------------------------------|
A|--------------------------------------------------------------|
F|--------------------------------------------------------------|
C|-7777--------7777-000-000-0007777---------3333333333377777777-|
G|-7777--------7777-000-000-0007777---------3333333333377777777-|
C|-7777--------7777-000-000-0007777---------3333333333377777777-|


Guitar 1
D|-----------------------|
A|-----------------------|
F|10-------------7-7--7~-|
C|-x-------------7-7--7~-|
G|-8~------------5-5--5~-|
C|-----------------------|
|
Guitar 2
D|-----------------------|
A|-----------------------|
F|7~---7~---7~---7-7--7~-|
C|7~---7~---7~---7-7--7~-|
G|5~---5~---5~---5-5--5~-|
C|-----------------------|

Guitar 2 (guitar 1 keeps letting it ring)
D|-------------------|
A|-------------------|
F|-------------------|
C|0---3---5---8--7-5-|
G|-------------------|
C|-------------------|


Guitar 1
D|--------------------------------|
A|--------------------------------|
F|14141414121212121010101099999999
C|-x-x-x-x-x-x-x-x-x-x-x-xxxxxxxxx-|
G|1212121210101010-8-8-8-877777777-|
C|---------------------------------|
|
Guitar 2
D|--------------------------------|
A|--------------------------------|
F|--------------------------------|
C|10101010777777778888888810101010
G|10101010777777778888888810101010
C|10101010777777778888888810101010


Guitar 1
D|-----------------------------------|
A|-----------------------------------|
F|77777777799101010101212121210109999
C|-x-x-x-x-x-x-x-x-x-x-x-x-x-x-x-x-x--|
G|55555555577-8-8-8-810101010-8-87777-|
C|------------------------------------|
|
Guitar 2
D|-----------------------------------|
A|-----------------------------------|
F|-----------------------------------|
C|12~---------------8~---------------|
G|12~---------------8~---------------|
C|12~---------------8~---------------|

Guitar 1
D|--------------------------------|
A|--------------------------------|
F|14141414121212121010101099999999
C|-x-x-x-x-x-x-x-x-x-x-x-xxxxxxxxx-|
G|1212121210101010-8-8-8-877777777-|
C|---------------------------------|
|
Guitar 2
D|--------------------------------|
A|--------------------------------|
F|--------------------------------|
C|10101010777777778888888810101010
G|10101010777777778888888810101010
C|10101010777777778888888810101010


Guitar 1
D|-----------------------------------|
A|-----------------------------------|
F|77777777799101010101212121210109999
C|-x-x-x-x-x-x-x-x-x-x-x-x-x-x-x-x-x--|
G|55555555577-8-8-8-810101010-8-87777-|
C|------------------------------------|
|
Guitar 2
D|-----------------------------------|
A|-----------------------------------|
F|-----------------------------------|
C|12~---------------8~---------------|
G|12~---------------8~---------------|
C|12~---------------8~---------------|

Guitar 1
D|--------------------------------|
A|--------------------------------|
F|14141414121212121010101099999999
C|-x-x-x-x-x-x-x-x-x-x-x-xxxxxxxxx-|
G|1212121210101010-8-8-8-877777777-|
C|---------------------------------|
|
Guitar 2
D|--------------------------------|
A|--------------------------------|
F|--------------------------------|
C|10101010777777778888888810101010
G|10101010777777778888888810101010
C|10101010777777778888888810101010


Guitar 1
D|--
A|--
F|7~
C|7~
G|5~
C|--
|
Guitar 2
D|------------------------------|
A|------------------------------|
F|------------------------------|
C|7-7--77-7-7--77-7-77--77-7-77-|
G|5-5--55-5-5--55-5-55--55-5-55-|
C|------------------------------|
  . .  .. . .  .. . ..  .. . ..

both guitars
D|---
A|---
F|8-8
C|8-8
G|6-6
C|---


Guitar 1
D|--
A|--
F|7~
C|7~
G|5~
C|--
|
Guitar 2
D|------------------------------|
A|------------------------------|
F|------------------------------|
C|7-7--77-7-7--77-7-77--77-7-77-|
G|5-5--55-5-5--55-5-55--55-5-55-|
C|------------------------------|
  . .  .. . .  .. . ..  .. . ..

both guitars
D|---
A|---
F|8-8
C|8-8
G|6-6
C|---

Both guitars
D|------------------------------------------------|
A|------------------------------------------------|
F|-------------------8-8-------------------8-8----|
C|-------------------8-8-------------------8-8----|
G|-------------------6-6-------------------6-6----|
C|------------------------------------------------|

"MOVE!"


Both
D|------------------------------|
A|------------------------------|
F|------------------------------|
C|0---------------0-------------|
G|0-0--00-0-0--00-0-00--00-0-00-|
C|0-0--00-0-0--00-0-00--00-0-00-|
    .  .. . .  ..   ..  .. . ..

Guitar 1
D|---
A|---
F|8-8
C|8-8
G|6-6
C|---
|
Guitar 2
D|---
A|---
F|---
C|1-1
G|1-1
C|1-1


Both
D|------------------------------|
A|------------------------------|
F|------------------------------|
C|0---------------0-------------|
G|0-0--00-0-0--00-0-00--00-0-00-|
C|0-0--00-0-0--00-0-00--00-0-00-|
    .  .. . .  ..   ..  .. . ..


Guitar 1
D|---
A|---
F|8-8
C|8-8
G|6-6
C|---
|
Guitar 2
D|---
A|---
F|---
C|1-1
G|1-1
C|1-1


both
D|----------------------------|
A|----------------------------|
F|----------------------------|
C|3-3--33-3-3-33-3-33-33-3-33-|
G|3-3--33-3-3-33-3-33-33-3-33-|
C|3-3--33-3-3-33-3-33-33-3-33-|


Guitar 1
D|---
A|---
F|8-8
C|8-8
G|6-6
C|---
|
Guitar 2
D|---
A|---
F|---
C|1-1
G|1-1
C|1-1


Both
D|------------------------------|
A|------------------------------|
F|------------------------------|
C|0---------------0-------------|
G|0-0--00-0-0--00-0-00--00-0-00-|
C|0-0--00-0-0--00-0-00--00-0-00-|
    .  .. . .  ..   ..  .. . ..


Guitar 1
D|---
A|---
F|8-8
C|8-8
G|6-6
C|---
|
Guitar 2
D|---
A|---
F|---
C|1-1
G|1-1
C|1-1


Guitar 1
D|--------------------------------|
A|--------------------------------|
F|--------------------------------|
C|12~----12~----12~-----12-12\\\\-|
G|12~----12~----12~-----12-12\\\\-|
C|12~----12~----12~-----12-12\\\\-|
|
Guitar 2
D|-------------------------------|
A|-------------------------------|
F|-------------------------------|
C|0~-----0~------0~-----0--0-----|
G|0~-----0~------0~-----0--0-----|
C|0~-----0~------0~-----0--0-----|


THE END

my work here is done
Tap to rate this tab
# A B C D E F G H I J K L M N O P Q R S T U V W X Y Z