Song name
# A B C D E F G H I J K L M N O P Q R S T U V W X Y Z

Stickers N Stitches - For Nicole tab

#----------------------------------PLEASE NOTE--------------------------------#
#This file is the author's own work and represents their interpretation of the#
#song. You may only use this file for private study, scholarship, or research.#
#-----------------------------------------------------------------------------#
#-- File created with Instab - http://www.pconline.com/~smcarey/instab.html --#
#-----------------------------------------------------------------------------#

Author/Artist: Stickers n' Stitches
Title: For Nicole
Album: none
Transcribed by: JMTA
Email: spife1@hotmail.com

This is another song by my underground band Stickers n' Stitches.
You could play it on your own. Enjoy!

------------------------------------------------------------------------|-----|
-1-------1-------1-------1-------0-------0-------3-------3-------3------|-----|
---0---0---0---0---2---2---2---2---0---0---0---0---0---0---0---0---0---0|-----|
-----2-------2-------2-------2-------2-------2-------0-------0-------0--|-----|
-3-------3-------0-------0-------2-------2-------3----------------------|-----|
---------------------------------------------------------3-------3------|-----|
 Rhythm Fig. 1 (repeat 2 times)

--------------------------------|---------------------------------------------|
-2-------2-------2-------4--/6--|---------------------------------------------|
---2---2---2---2---3---3---5---7|---------------------------------------------|
-----2-------2-------3----------|---------------------------------------------|
-0-------0-------1-------3--/5--|---------------------------------------------|
--------------------------------|---------------------------------------------|
 Rhythm Fig. 2

----------------------------------------------------------------|-------------|
---1---1---1---1---1---1---1---1---0---0---0---0---3---3---3---3|-------------|
---0---0---0---0---2---2---2---2---0---0---0---0---0---0---0---0|-------------|
----------------------------------------------------------------|-------------|
-3---3---3---3---0---0---0---0---2---2---2---2---2---2---2---2--|-------------|
----------------------------------------------------------------|-------------|
  Rhythm Fig. 3 (repeat 2 times, and go back to Rhy. Fig. 1) Bye!
Tap to rate this tab
# A B C D E F G H I J K L M N O P Q R S T U V W X Y Z