Song name
# A B C D E F G H I J K L M N O P Q R S T U V W X Y Z

Stickers N Stitches - Instrumental One tab

#----------------------------------PLEASE NOTE--------------------------------#
#This file is the author's own work and represents their interpretation of the#
#song. You may only use this file for private study, scholarship, or research.#
#-----------------------------------------------------------------------------#
#-- File created with Instab - http://www.pconline.com/~smcarey/instab.html --#
#-----------------------------------------------------------------------------#

Author/Artist: Stickers n' Stitches
Title: Instrumental number 1
Transcribed by: JMTA
Email: spife1@hotmail.com

This is an instrumental picking song by my underground band, Stickers n' Stitche
s.

------2-----------2-2h3p2|-------2-----------2-2h3p2|-------2-----------2-----|
----2---2-------3--------|-----2---2-------3--------|-----2---2-------3-------|
--2-------2---2----------|---2-------2---2----------|---2-------2---2---------|
-2----------0------------|-2-----------0------------|-2-----------0-----------|
-------------------------|--------------------------|-------------------------|
-------------------------|--------------------------|-------------------------|
 The fingerpicking part will be called the Intro.

-2hp32|-0-0-0-0--0-0|-2-2-2-2--2h32|------------------------------------------|
------|-2-2-2-2--2-2|-3-3-3-3--0---|------------------------------------------|
------|-2-2-2-2--2-2|-2-2-2-2--2---|------------------------------------------|
------|-2-2-2-2--2-2|--------------|------------------------------------------|
------|-------------|--------------|------------------------------------------|
------|-------------|--------------|------------------------------------------|
 The first part with the chord is Rhythm Fig. 1.

-5-------5-------5-------6---6--|---------------------------------------------|
---6---6---6---6---6---6---6---6|---------------------------------------------|
-----5-------5-------5----------|---------------------------------------------|
--------------------------------|---------------------------------------------|
--------------------------------|---------------------------------------------|
--------------------------------|---------------------------------------------|
 This is Rhythm Figure 2.

--------------------------------|---------------------------------------------|
--------------------------------|---------------------------------------------|
--------------------------------|---------------------------------------------|
--------------------------------|---------------------------------------------|
---4-3-2---4-3-2---4-3-2---4---4|---------------------------------------------|
-3-------3-------3-------3---3--|---------------------------------------------|
 This is Rhythm Figure 2.5.

-----------------------------------------------------------------|------------|
-5-4-3-4-5-4-3-4-5-4-3-4-5-4-5-4---------------------------------|------------|
----------------------------------7-6-5-6-7-6-5-6-7-6-5-6-7-6-7-6|------------|
-----------------------------------------------------------------|------------|
-----------------------------------------------------------------|------------|
-----------------------------------------------------------------|------------|
 This is Rhythm Fig. 3. Order is as follows:Intro,RF(Rhythm Fig.)1,RF2(4x),

-5----------------------------------------------------------------------------|
-6----------------------------------------------------------------------------|
-5----------------------------------------------------------------------------|
------------------------------------------------------------------------------|
------------------------------------------------------------------------------|
------------------------------------------------------------------------------|
 RF1(2x),RF2.5(4x),RF1(2x),RF3(2x),RF1(2x),RF2(4x),and end with the 565

------------------------------------------------------------------------------|
------------------------------------------------------------------------------|
------------------------------------------------------------------------------|
------------------------------------------------------------------------------|
------------------------------------------------------------------------------|
------------------------------------------------------------------------------|
 chord above. Thanks. Hope you liked it.
Tap to rate this tab
 
# A B C D E F G H I J K L M N O P Q R S T U V W X Y Z