Song name
# A B C D E F G H I J K L M N O P Q R S T U V W X Y Z

Stickup Kid - The Oceanwalker tab

Artist: Stickup Kid (http://www.facebook.com/stickupkidca)
\
Album: The Sincerest Form of Flattery
Track: The Oceanwalker
Tuning: Standard (EADGBe)
NB - 3/4 timing; hammer-ons (h) and pull-offs (p) shown above note as they 
wouldn’t fit next to them.

Intro
E|------------------------|------------------------|
B|------------------------|------------------------|
G|------------------------|-------------9---9-8----|
D|-----119----------------|-----119-------------9--|
A|-0-0--------------------|-0-0-----11-------------|
E|------------------------|------------------------|

E|------------------------|------------------------|
B|------------------------|------------------------|
G|------------------------|------------------------|
D|-----119-----------h-p--|-9----------------------|
A|-0-0-----11--11--111211-|-----12--11--9---11-----|
E|------------------------|---------------------12-|

E|------------------------|------------------------|
B|------------------------|------------------------|
G|------------------------|-------------9---9-8----|
D|-----119----------------|-----119-------------9--|
A|-0-0--------------------|-0-0-----11-------------|
E|------------------------|------------------------|

E|------------------------|------------------------|
B|------------------------|------------------------|
G|------------------------|------------------------|
D|-----119-----------h-p--|-9----------------------|
A|-0-0-----11--11--111211-|-----12--11--9----------|
E|------------------------|------------------------|

Verse
E|------------------------|------------------------|
B|------------------------|------------------------|
G|-6-6-6-6-6-6-6-6-6-6-6-6|-6-6-6-6-6-6-6-6-6-6-6-6|
D|-6-6-6-6-6-6-6-6-6-6-6-6|-6-6-6-6-6-6-6-6-6-6-6-6|
A|-4-4-4-4-4-4-4-4-4-4-4-4|-4-4-4-4-4-4-4-4-4-4-4-4|
E|------------------------|------------------------|

E|------------------------|------------------------|
B|------------------------|------------------------|
G|------------------------|------------------------|
D|-7-7-7-7-7---7-7-7-7-7-7|-6-6-6-6-6-6-7-7-7-7-7-7|
A|-7-7-7-7-7---7-7-7-7-7-7|-7-7-7-7-7-7-7-7-7-7-7-7|
E|-5-5-5-5-5---5-5-5-5-5-5|-4-4-4-4-4-4-5-5-5-5-5-5|

E|------------------------|------------------------|
B|------------------------|------------------------|
G|-6-6-6-6-6-6-6-6-6-6-6-6|-6-6-6-6-6-6-6-6-6-6-6-6|
D|-6-6-6-6-6-6-6-6-6-6-6-6|-6-6-6-6-6-6-6-6-6-6-6-6|
A|-4-4-4-4-4-4-4-4-4-4-4-4|-4-4-4-4-4-4-4-4-4-4-4-4|
E|------------------------|------------------------|

E|------------------------|------------------------|
B|------------------------|------------------------|
G|-9-9-9-9-9-9-9-9-9-9-9-9|-8-8-8-8-8-8-8-8-8-8-8-8|
D|-9-9-9-9-9-9-9-9-9-9-9-9|-8-8-8-8-8-8-8-8-8-8-8-8|
A|-7-7-7-7-7-7-7-7-7-7-7-7|-6-6-6-6-6-6-6-6-6-6-6-6|
E|------------------------|------------------------|

Bridge
E|------------------------|------------------------|
B|------------------------|------------------------|
G|------------------------|-------------9---9-8----|
D|-----119----------------|-----119-------------9--|
A|-0-0--------------------|-0-0-----11-------------|
E|------------------------|------------------------|

E|------------------------|------------------------|
B|------------------------|------------------------|
G|------------------------|------------------------|
D|-----119-----------h-p--|-9----------------------|
A|-0-0-----11--11--111211-|-----12--11--9----------|
E|------------------------|------------------------|

Outro
E|------------------------|------------------------|
B|------------------------|------------------------|
G|-8---9---9---9----------|-8---9---9---9----------|
D|-x---x---x---x----------|-x---x---x---x----------|
A|-6---7---7---7-----7-7-7|-6---7---7---7-----7-7-7|
E|------------------------|------------------------|
PM                   . . .                    . . .
E|------------------------|------------------------|
B|------------------------|------------------------|
G|-13--13--13--13--13--13-|-11--11--11--11--11--11-|
D|-x---x---x---x---x---x--|-x---x---x---x---x---x--|
A|-11--11--11--11--11--11-|-9---9---9---9---9---9--|
E|------------------------|------------------------|

E|------------------------|------------------------|
B|------------------------|------------------------|
G|-8---9---9---9----------|-8---9---9---9----------|
D|-x---x---x---x----------|-x---x---x---x----------|
A|-6---7---7---7-----7-7-7|-6---7---7---7-----7-7-7|
E|------------------------|------------------------|
                     . . .                    . . .
E|------------------------|------------------------|
B|------------------------|------------------------|
G|-16--16--16--16--16--16-|-14--14--14--14--14--14-|
D|-x---x---x---x---x---x--|-x---x---x---x---x---x--|
A|-14--14--14--14--14--14-|-12--12--12--12--12--12-|
E|------------------------|------------------------|

E|------------------------|------------------------|
B|------------------------|------------------------|
G|-11--13--13--13---------|-11--13--13--13---------|
D|-x---x---x---x----------|-x---x---x---x----------|
A|-9---11--11--11---111111|-9---11--11--11---111111|
E|------------------------|------------------------|
                     . . .                    . . .
E|------------------------|------------------------|
B|------------------------|------------------------|
G|-9---9---9---9---9---9--|-8---8---8---8---8---8--|
D|-x---x---x---x---x---x--|-x---x---x---x---x---x--|
A|-7---7---7---7---7---7--|-6---6---6---6---6---6--|
E|------------------------|------------------------|

E|------------------------|------------------------|
B|------------------------|------------------------|
G|-11--13--13--13---------|-11--13--13--13---------|
D|-x---x---x---x----------|-x---x---x---x----------|
A|-9---11--11--11---111111|-9---11--11--11---111111|
E|------------------------|------------------------|
                     . . .                    . . .
E|------------------------|------------------------|
B|------------------------|------------------------|
G|-16--16--16--16--16--16-|-14--14--14--14--14--14-|
D|-x---x---x---x---x---x--|-x---x---x---x---x---x--|
A|-14--14--14--14--14--14-|-12--12--12--12--12--12-|
E|------------------------|------------------------|

E|------------------------|------------------------|
B|------------------------|------------------------|
G|-8---9---9---9----------|-9---11--11--11---------|
D|-x---x---x---x----------|-x---x---x---x----------|
A|-6---7---7---7----------|-7---9---9---9----------|
E|------------------------|------------------------|

E|------------------------|------------------------|
B|------------------------|------------------------|
G|-11--13--13--13---------|-16--14--13--14--13--11-|
D|-x---x---x---x----------|-x---x---x---x---x---x--|
A|-9---11--11--11---------|-14--12--11--12--11--9--|
E|------------------------|------------------------|

E|------------------------|------------------------|
B|------------------------|------------------------|
G|-9----------------------|------------------------|
D|-x----------------------|------------------------|
A|-7----------------------|------------------------|
E|------------------------|------------------------|
Tap to rate this tab
# A B C D E F G H I J K L M N O P Q R S T U V W X Y Z