Song name
# A B C D E F G H I J K L M N O P Q R S T U V W X Y Z

Stiff Little Fingers - No Surrender tab

Stiff Little Fingers
No Surrender
Flags And Emblems

All I've got is the Whole Song But The Solo its Quite hard to figure out but it starts 
the G on the 5th fret thats all i know.

Standard Tuning
EADGBE

Intro:
|-----------------------------------------|
|-----------------------------------------|
|--5-5------3---2---3--5--3---5-----------|
|--5-5--------3---3---------5-------------|
|--3-3------------------------------------|
|-----------------------------------------|

Verse: (Palm Mute)
|-----------------------------------------|
|-----------------------------------------|
|--5555555555555555-3333-2222-55555555----|
|--5555555555555555-3333-2222-55555555----|
|--3333333333333333-1111-0000-33333333----|
|-----------------------------------------|
Bridge:
|-----------------------------------------|
|-----------------------------------------|
|--5-5-5-5-5-5-5--------------------------|
|--5-5-5-5-5-5-5--3-3-3-3--5-5-5-5--------|
|--3-3-3-3-3-3-3--3-3-3-3--5-5-5-5--------|
|-----------------1-1-1-1--3-3-3-3--------|

Chorus:
|-----------------------------------------|
|-----------------------------------------|
|--5-5-5-5--------------------------------|
|--5-5-5-5--5-5-5-5--3-3-3-3--5-5-5-5-----|
|--3-3-3-3--5-5-5-5--3-3-3-3--5-5-5-5-----|
|-----------3-3-3-3--1-1-1-1--3-3-3-3-----|

Middle 8:

Just Have to Use C+G..........
Tap to rate this tab
# A B C D E F G H I J K L M N O P Q R S T U V W X Y Z