Song name
# A B C D E F G H I J K L M N O P Q R S T U V W X Y Z

Stiff Little Fingers - Love Of The Common People tab

Great cover.

Intro: Play twice
e|-------------------|
B|-------------------|
G|----6-9--7--11-9---|
D|-7--6-9--7--11-9---|
A|-7--4-7--5--9--7---|
E|-5-----------------|

Fill: Keep it accurate, finger the whole barre if you find it easier.
e|-----------------------------|
B|-5-5-5--5-5-5--5-5-5--5-5-5--|
G|-6-7-6--6-7-6--6-7-6--6-7-6--|
D|-7-7-7--7-7-7--7-7-6--7-7-7--|
A|-----------------------------|
E|-----------------------------|

Verse (Reggae Rhythm): Play twice. Play it loosely and use your bridge pick up, back off 
volume a little to sound crisp.

e|-5--3---------|
B|-5--3--7--9---|
G|-6--4--7--9---|
D|-7--5--7--9---|
A|--------------|
E|--------------|

Chorus: I like to play the major chords(barre), but it's up to you here.
e|----------------------------------|
B|----------------------------------|
G|-----7-----9-----7-----9-9-9-9----|
D|--7--7--7--9--7--7--7--9-9-9-9----|
A|--7--5--7--7--7--5--7--7-7-7-7----|
E|--5-----5-----5-----5-------------|

Fill
Verse
Chorus

Bridge part 1 : Bridge part 2: Play this four times.
e|----------| e|-----------------------|
B|----------| B|-----------------------|
G|----------| G|-9-----9---------------|
D|--7--9----| D|-9--7--9--9------------|
A|--7--9----| A|-7--7--7--9------------| end on A
E|--5--7----| E|----5-----7------------|


I couldn't tab the solo, so instead play the second part of the Bridge twice, ending on A.

Chorus- Twice
Intro- Twice
End on A which is a major barre at the fifth fret, 6th string.
Tap to rate this tab
# A B C D E F G H I J K L M N O P Q R S T U V W X Y Z