Song name
# A B C D E F G H I J K L M N O P Q R S T U V W X Y Z

Stiff Little Fingers - Cant Believe In You tab

Standard tuning, really easy and fun to play.  I've only worked out half of the solo but 
have also put the chords to play behind the solo in the order of the riffs below.

Riff 1

e-------------------------------------------------|
b-------------------------------------------------|
g-7---7-----7-----4-7-----------------------------|
d-7-5-7-5-7-7-5-5-4-7-----------------------------|
a-5-5-5-5-7-5-5-5-2-5-----------------------------|
e---3---3-5---3-3---------------------------------|

Riff 2
e-------------------------------------------------|
b-------------------------------------------------|
g---------------7777------------------------------|
d-77777777-5555-7777-55555555-77777777------------|
a-77777777-5555-5555-55555555-77777777------------|
e-55555555-3333------33333333-55555555------------|

Riff 3
e-------------------------------------------------|
b-------------------------------------------------|
g-7777-9999------7777-----------------------------|
d-7777-9999-5555-7777-----------------------------|
a-5555-7777-5555-5555-----------------------------|
e-----------3333----------------------------------|

Riff 4
e-------------------------------------------------|
b-------------------------------------------------|
g-7777-9999---------------------------------------|
d-7777-9999-5555-7777-----------------------------|
a-5555-7777-5555-7777-----------------------------|
e-----------3333-5555-----------------------------|

Riff 5
e-------------------------------------------------|
b-------------------------------------------------|
g-7---7-------------------------------------------|
d-7-5-7-5-7---------------------------------------|
a-5-5-5-5-7---------------------------------------|
e---3---3-5---------------------------------------|


Riff 6
e-------------------------------------------------|
b-------------------------------------------------|
g----------77777777-------------------------------|
d-55555555-77777777-55555555-77777777-------------|
a-55555555-55555555-55555555-77777777-------------|
e-33333333----------33333333-55555555-------------|

lead bit (unfinished)

e-----------------------------------------------------------------------|
b-----------------------------------------------------------------------|
g-9h11p9----12-11----14-12-11----9-----9h11p9----12-11----14-12-11------|
d--------12-------12----------12---12---------12-------12----------12---|
a-----------------------------------------------------------------------|
e-----------------------------------------------------------------------|

Riff 1 x 3
Riff 2 x 1
Riff 1 x 3
Riff 2 x 1
Riff 3 x 3
Riff 4 x 1
Riff 5 x 1
Riff 1 x 2
Riff 2 x 1
Riff 3 x 3
Riff 4 x 1
Riff 6 x 1

Lead bit or
Riff 3 x 3
Riff 4 x 1

Riff 1 x 2
Riff 2 x 1
Riff 3 x 3
Riff 4 x 1
Riff 3 x 3
Riff 4 x 1
Riff 1 x 1
Tap to rate this tab
# A B C D E F G H I J K L M N O P Q R S T U V W X Y Z