Song name
# A B C D E F G H I J K L M N O P Q R S T U V W X Y Z

Stiff Little Fingers - Cant Believe In You chords

Highlighted       Show chord diagrams
CAN'T BELIEVE IN YOU (STIFF LITTLE FINGERS)


[D G  D G A]
[D G  G B D]

D G
   Don't think of tomorrow
D G A
   Do it today
D G                        G  B  D
   Lets live our lives in yesterday

D G
   The lies you're spreading
D G A
   Were dangerous then
D G                             G   B  D
  I can't watch you spread them all again

    A                             G           D
You tell me weíre more equal than other men I know
    G                                     A
But youíre advice just canít be right and canít be left to grow

[D G  D G A]
[D G  G B D]


Itís hard to reason
Itís hard to see
Why you never learn from history

You came down trodden
And you learned to walk
Now you wanna march before you talk

Youíre looking for a scapegoat, a victim or a fool
And though youíre free now that donít mean youíve freedom to be cruel

D              E                G                D
Donít give me opinions when you canít understand truth
        D           E                 G           D
I canít listen to a word you say, you havenít any proof
D            E               G               D
I believe in standing up for what I think is true
        D                E            G             A       D
But you hand me all this hatred and I just canít believe in you

[G  D G A]

Youíre being twisted
Youíre being used
And youíll never see my point of view

Youíre kicking back now
But canít you see?
What youíre kicking ainít your enemy

Youíre taking easy answers, believing age old lies
Though once oppressed youíre like the rest and just as much despised

SOLO (Chords = Chorus)
e ---------------------------------|
B ----------8-7---10-8-7-----------|
G Ė9b10r9-7-----7-------7-9-7------|
D ---------------------------------|
A ---------------------------------|
E ---------------------------------|


e ---------------------------------|
B ----------8-7---10-8-7-----------|
G -9b10r9-7-----7-------9----------|
D ---------------------------------|
A ---------------------------------|
E ---------------------------------|


e --------------------10--------------------|
B ------------10---10----10-8-7-8-7-10------|
G -9-9b10r9-7----7---------------------7-9--|
D ------------------------------------------|
A ------------------------------------------|
E ------------------------------------------|


e --------------------------------|
B ----------8-7---10-8-7-8-7------|
G -9b10r9-7-----7------------9-7--|
D --------------------------------|
A --------------------------------|
E --------------------------------|

Donít give me opinions when you canít understand truth
I canít listen to a word you say, you havenít any proof
I believe in standing up for what I think is true
But you hand me all this hatred and I just canít believe in you

You tell me all your problems, how you never got a break
But now youíre free youíre telling me that what you see youíll take

[D E G D] x3
[D E G A]


Itís all so stupid
Itís all so sad
That youíve had to have the life youíve had

That systemís gone now
Everything has changed
And thereís no-one left to take the blame

Youíve got to start rebuilding, rewriting your own rules
But get it right, donít end up like those bullet headed fools

Donít give me opinions when you canít understand truth
I canít listen to a word you say, you havenít any proof
I believe in standing up for what I think is true
But you hand me all this hatred and I just canít believe in you

Donít give me opinions when you canít understand truth
I canít listen to a word you say you havenít any proof
I believe in standing up for what I think is true
                                                            D
But you hand me all this hatred and I just canít believe in you

[G  D G A]
[D G  G B D]
Tap to rate this tab
 
# A B C D E F G H I J K L M N O P Q R S T U V W X Y Z