Song name
# A B C D E F G H I J K L M N O P Q R S T U V W X Y Z

Stiff Little Fingers - Wasted Life tab

Wasted Life

Intro
e|----------------------------|
B|----------------------------|
G|----------------------------|
D|--7--7-7-7-7-7-7-7-7-7-7-7--|
A|--7-------------------------|
E|--5-------------------------|


Verse
e|---------------------------------------------------------------------|
B|---------------------------------------------------------------------|
G|--------6------------------------------------------------------------|
D|--77-7-----7-7-7-7-7-7-7-7-7-7-7-7-7-7-7-7-7-7-7-7-7-7--5-5-5-5-5-5--|
A|--------------------------------------------------------5-5-5-5-5-5--|
E|--------------------------------------------------------3-3-3-3-3-3--|

e|-------------------------------------------------------|
B|-------------------------------------------------------|
G|-------------------------------------------------------|
D|--7-7-7-7-7-7-7-7-7-7-7-7-7-7-7-7-7-7-7---5-5-5-5-5-5--|
A|------------------------------------------5-5-5-5-5-5--|
E|------------------------------------------3-3-3-3-3-3--|

e|----------------------------------------------------------------|
B|----------------------------------------------------------------|
G|----------------------------------------------------------------|
D|--777777777777777777777777777777777777777777777777-5-5-5-5-5-5--|
A|--777777777777777777777777777777777777777777777777-5-5-5-5-5-5--|
E|--555555555555555555555555555555555555555555555555-3-3-3-3-3-3--|

e|----------------------------------------------------------------|
B|----------------------------------------------------------------|
G|----------------------------------------------------------------|
D|--777777777777777777777777777777777777777777777777-5-5-5-5-5-5--|
A|--777777777777777777777777777777777777777777777777-5-5-5-5-5-5--|
E|--555555555555555555555555555555555555555555555555-3-3-3-3-3-3--|

Chorus
e|--------------------------------------------------------|
B|--------------------------------------------------------|
G|---------------99999999------------------99999999-------|
D|--555555555555-99999999-7777777777777777-99999999-7777--|
A|--555555555555-77777777-7777777777777777-77777777-7777--|
E|--333333333333----------5555555555555555----------5555--|
 
e|------------------------------------------------------|
B|------------------------------------------------------|
G|-----------99999999--------------------------777------|
D|--77777777-99999999-7777777777777777--555555-777-777--|
A|--77777777-77777777-7777777777777777--555555-555-777--|
E|--55555555----------5555555555555555--333333-----555--|

Verse 2
e|-----------------------------------------------------------------|
B|-----------------------------------------------------------------|
G|-----------------------------------------------------------------|
D|--7777777777777777777777777777777777777777777777777-5-5-5-5-5-5--|
A|--7777777777777777777777777777777777777777777777777-5-5-5-5-5-5--|
E|----------------------------------------------------3-3-3-3-3-3--|
 PM .................................................

e|-----------------------------------------------------------|
B|-----------------------------------------------------------|
G|-----------------------------------------------------------|
D|--7777777777777777777777777777777777777777777-5-5-5-5-5-5--|
A|--7777777777777777777777777777777777777777777-5-5-5-5-5-5--|
E|----------------------------------------------3-3-3-3-3-3--|
 PM ...........................................

e|---------------------------------------------------------------------------|
B|---------------------------------------------------------------------------|
G|---------------------------------------------------------------------------|
D|--77777777777777777777777777777777777777777777777777777777777-5-5-5-5-5-5--|
A|--77777777777777777777777777777777777777777777777777777777777-5-5-5-5-5-5--|
E|--55555555555555555555555555555555555555555555555555555555555-3-3-3-3-3-3--|

e|------------------------------------------------------------------|
B|------------------------------------------------------------------|
G|------------------------------------------------------------------|
D|--77777777777777777777777777777777777777777777777777-5-5-5-5-5-5--|
A|--77777777777777777777777777777777777777777777777777-5-5-5-5-5-5--|
E|--55555555555555555555555555555555555555555555555555-3-3-3-3-3-3--|

Bridge
e|-------------------------------------------------------------|
B|-------------------------------------------------------------|
G|-------------------------------------------------------------|
D|--4444444444444-2222222-444444444444444444444-2222222222222--|
A|--4444444444444-2222222-444444444444444444444-2222222222222--|
E|--2222222222222-0000000-222222222222222222222-0000000000000--|

e|-------------------------------------------------------------------------|
B|-------------------------------------------------------------------------|
G|-------------------------------------------------------------------------|
D|--44444444444444444444444--2222222-44444444444444444444444-666666666666--|
A|--44444444444444444444444--2222222-44444444444444444444444-666666666666--|
E|--22222222222222222222222--0000000-22222222222222222222222-444444444444--|

Solo
e|----------------------------------------------------------------------|
B|----------------------------------------------------------------------|
G|--6-7-8-9-7h9p7-6--6-7-8-9-7h9p7-6--6-7-8-9-7h9p7-6--4-6--7-6--2-1-2--|
D|----------------------------------------------------------------------|
A|----------------------------------------------------------------------|
E|----------------------------------------------------------------------|

ORDER
-----
Intro
Verse
Chorus
Verse 2
Chorus
Bridge
Solo
Verse 2
Chorus (x2)

--------------------------
Tap to rate this tab
 
# A B C D E F G H I J K L M N O P Q R S T U V W X Y Z