Guitaretab - guitar tabs
Song name
# A B C D E F G H I J K L M N O P Q R S T U V W X Y Z

Stiff Little Fingers - Suspect Device Live tab

This is from memory so go easy. Should be right though.
It's off their 1999 live album 'Handheld and Rigidly Digital'
I've layed the chords out as theyre strummed because he doesnt do them continuously like 
the record, theres a strumming patern, some up and some down.

Legend:
. = palm mute
~ = let ring
h = hammer on
/ = slide up

intro
e--------------------|
B--------------------|
G-----9999-999-99-99-|
D-----9999-999-99-99-| X4
A-----7777-777-77-77-|
E-7h9----------------| this is where he sings 'Inflammable material...'

Verse
e-------------------------------------|
B-------------------------------------|
G---------------------------9---------|
D-9-99999999999999-7-777777-9-9-999---|
A-9-99999999999999-7-777777-7-9-999---|
E-7-77777777777777-5-555555---7-777---|
    ..............   ......

e------------------------------------------------------------------|
B------------------------------------------------------------------|
G---------------------------9-99999-77------9-999999-77------9-999-|
D-9-99999999999999-7-777777-9-99999-77-7777-9-999999-77-7777-9-999-|
A-9-99999999999999-7-777777-7-77777-55-7777-7-777777-55-7777-7-777-|
E-7-77777777777777-5-555555------------5555-------------5555-------|
    ..............   ......

Chorus
[ Tab from: http://www.guitaretab.com/s/stiff-little-fingers/57228.html ]
e---------------------------------------------------------|
B---------------------------------------------------------|
G-999-99-999-99-999-------9999-999-9-9-9-9-9-9-------9999-|
D-999-99-999-99-999-99-77-9999-999-9-9-9-9-9-9-99-77-9999-|
A-777-77-777-77-777-99-77-7777-777-7-7-7-7-7-7-99-77-7777-|
E-------------------77-55----------------------77-55------|
  ...    ...    ...

Bridge
e------------------------------7~----|
B------------------------------7~----|
G------------------------------------|
D-999-777-2222-999-777-2222-2~----2~-|
A-999-777-2222-999-777-2222-2~----2~-|
E-777-555-0000-777-555-0000-0~----0~-|

e-----------------------------------|
B-----------------------------------|
G-----------------------------------|
D-6/7-7-7-7-7-7-7-7-6/7-7-7-7-7-7-7-|
A-4/5-5-5-5-5-5-5-5-4/5-5-5-5-5-5-5-|
E-----------------------------------|

Then there a werid kinda false chorus where he goes 'Don't believe them, Dont belive 
I tell you question everything youre toooooolllldd!' where he does this...

e------------------------------|
B------------------------------|
G-999-99-999-99-999---------9~-|
D-999-99-999-99-999-999-777-9~-|
A-777-77-777-77-777-999-777-7~-|
E-------------------777-555----|
  ...    ...    ...

Then it goes back into the verse.

This is basically it, its all made up of these 4 riffs. I can't think of the order, I'l 
and post it later, please rate this!

STIFF LITTLE FINGERS!!!!
Related for Suspect Device Live tab
Advertisement will be closed in 10 seconds