Guitaretab - guitar tabs
Song name
# A B C D E F G H I J K L M N O P Q R S T U V W X Y Z

Stiff Little Fingers - Guitar And Drum tab

                Guitar And Drum - Stiff Little Fingers
----------------------------------------------------------------------------------------------|
Tabbed by: Dagz13
This is my first tab so go easy on me!

Tuning: EbAbDbGbBbeb (to play in standard just drop everything down a fret)

Intro riff
e|--------------------------------------------------------------------------|
B|--------------------------------------------------------------------------|
G|---------5-5-------3-3-3--------------------------------------------------|
D|---------5-5-7-5-2-3-3-3--------------------------------------------------|
A|---5-2-3------------------------------------------------------------------|
E|-3------------------------------------------------------------------------|


Verse

Well you get you're entertainment....
  x x     x x      x x    x x     x x    x x      xx    x x
e|--------------------------------------------------------------------------|
B|--------------------------------------------------------------------------|
G|--------------------------------------------------------------------------|
D|-5-5-5-5-5-5-5-5----------------------------------------------------------|
A|-3-3-3-3-3-3-3-3-3-3-3-3-3-3-3-3-5-5-5-5-5-5-5-5-3-3-3-3-3-3-3-3----------|
E|-----------------1-1-1-1-1-1-1-1-3-3-3-3-3-3-3-3-1-1-1-1-1-1-1-1----------|


Prechorus

It might make all the young girl's hearts....
e|--------------------------------------------------------------------------|
B|--------------------------------------------------------------------------|
G|--------------------------------------------------------------------------|
D|-5-5-5-5-5-5-5-5----------------------------------------------------------|
A|-3-3-3-3-3-3-3-3-7-7-7-7-7-7-7-7-3-3-3-3-3-3-3-3-3-3-3-3-3-3-3-3----------|
E|-----------------5-5-5-5-5-5-5-5-1-1-1-1-1-1-1-1-1-1-1-1-1-1-1-1----------|
[ Tab from: http://www.guitaretab.com/s/stiff-little-fingers/74944.html ]
e|--------------------------------------------------------------------------|
B|--------------------------------------------------------------------------|
G|--------------------------------------------------------------------------|
D|--------------------------------------------------------------------------|
A|-5-5-5-5-5-5-5-5-7-7-7-7-7-7-7-7-3-3-3-3-3-3-3-3-3-3-3-3-3-3-3-3----------|
E|-3-3-3-3-3-3-3-3-5-5-5-5-5-5-5-5-1-1-1-1-1-1-1-1-1-1-1-1-1-1-1-1----------|

Chorus
I believe....
e|---------------------------------------------------------------------------|
B|---------------------------------------------------------------------------|
G|---------------------------------------------------------------------------|
D|-5--5--5--5----------------------------------------------------------------|
A|-3--3--3--3--5--5--5--5--3--3--3--3--5--5--5--5----------------------------|
E|-------------3--3--3--3--1--1--1--1--3--3--3--3----------------------------|

Solo: just the start here. I'll post the rest when i have time

e|--------------------------------------------------------------------------|
B|--------------------------------------------------------------------------|
G|-----------------------12-------------------------------------------------|
D|-^12-^12-^12-10-----14----10-12-------------------------------------------|
A|-----------------12-------------------------------------------------------|
E|--------------------------------------------------------------------------|

e|--------------------------------------------------------------------------|
B|--------------------------------------------------------------------------|
G|--------------------------------------------------------------------------|
D|--------------------------------------------------------------------------|
A|--------------------------------------------------------------------------|
E|--------------------------------------------------------------------------|

Order:

Intro riff x2
Verse x2
prechorus x1
chorus x2
Intro riff x2
verse x2
prechorus x1


Punk Rock forever!!
| ^  bend
| /  slide up
| \  slide down
| h  hammer-on
| p  pull-off
| ~  vibrato
| +  harmonic
| x  Mute note
============================================================================
Related for Guitar And Drum tab
Advertisement will be closed in 10 seconds