Song name
# A B C D E F G H I J K L M N O P Q R S T U V W X Y Z

Stiff Little Fingers - Tin Soldiers tab

Before and during: 
If at the age of 17 you fall in line too soon then at the age of 21 you'll still march too the tune

|--------------------|
|--------------------|
|-----9--------------|
|--9------9----------|
|-------------7------|
|--------------------|


Solo
|---------------------------------------12---------------------------------|
|--12h14p12---14-15--14h15--12--14--15------15--14h15--12----------12------|
|----------------------------------------------------------14--11----------|
|--------------------------------------------------------------------------|
|--------------------------------------------------------------------------|
|--------------------------------------------------------------------------|

|---------------------------------------12---------------------------------|
|--12h14p12---14-15--14h15--12--14--15------15--14h15--12----------12------|
|----------------------------------------------------------14--11----------|
|--------------------------------------------------------------------------|
|--------------------------------------------------------------------------|
|--------------------------------------------------------------------------|

|---------------------------------------12---------------------------------|
|--12h14p12---14-15--14h15--12--14--15------15--14--12--14--15--12---------|
|--------------------------------------------------------------------------|
|--------------------------------------------------------------------------|
|--------------------------------------------------------------------------|
|--------------------------------------------------------------------------|

Bits at the end of the song
|----------------------------|---|---------------|---|----------------12---|
|----------------------------|---|-9--10-----9---|---|--9-10-------9-------|
|-9--11-12--11h12--9-------9-|x2-|-------------9-|x3-|---------------------|
|--------------------12--9---|---|---------------|---|---------------------|
|----------------------------|---|---------------|---|---------------------|
|----------------------------|---|---------------|---|---------------------|

|-12------14--12-|--12--------|-12----13p12----------------|
|-----14---------|------------|----------------------------|
|----------------|------------|----------------------------|
|----------------|------------|----------------------------|
|----------------|------------|----------------------------|
|----------------|------------|----------------------------|


If its not write don't let me know
screw you!


Tap to rate this tab
# A B C D E F G H I J K L M N O P Q R S T U V W X Y Z