Song name
# A B C D E F G H I J K L M N O P Q R S T U V W X Y Z

Stiff Little Fingers - Doesnt Make It Alright tab

{x
{x= left hand mute
{x
V= down stroke
^= up stroke


 Intro:
e|----------------------------||
B|----------------------------||
G|-7-x--5-x-----4-x--2-x------||
D|-7-x--5-x-----4-x--2-x------||
A|-5-x--3-x-----2-x--0-x------||
E|----------------------------||

 Verse:
   G         D        C           D   D# E       C       D
|--3---------5--------3-----------5---6--7-------3-------5---------------|  
|--3---------7--------5-----------7---8--9-------5-------7---------------|
|--4---------7--------5-----------7---8--9-------5-------7---------------|X3
|--5---------7--------5-----------7---8--9-------5-------7---------------|
|--5---------5--------3-----------5---6--7-------3-------5---------------|
|--3---------------------------------------------------------------------|
   VV^ ^V^   VV^ ^V^  VV^ ^V^     VVV ^V^ ^V^    VV^ ^V^  VV^ ^V^ VV^ ^V^ 
 


Chorus:
  G       D       C       D
|-3-------5-------3-------5---------|  
|-3-------7-------5-------7---------|
|-4-------7-------5-------7---------|X4(on 4th on last D go back to intro) 
|-5-------7-------5-------7---------|
|-5-------5-------3-- ----5---------|
|-3---------------------------------|
  VV^ ^V^ VV^ ^V^ VV^ ^V^ VV^ ^V^



Song Sequence:
Intro
Verse
Chorus(into intro)
Verse
Chorus(into intro)
Verse
Chorus(into intro)
Verse
Chorus(into intro)x4


I hope this tab helps you

email me with your comments at calum-doc@hotmai.co.uk

by calum
 thanks
Tap to rate this tab
 
# A B C D E F G H I J K L M N O P Q R S T U V W X Y Z