Song name
# A B C D E F G H I J K L M N O P Q R S T U V W X Y Z

Stiftelsen - Vart Jag An Gar tab

Vart Jag Än Går - Stiftelsen
-------------------------------------------------------------------------------

Tuning: Standard

Chords:        G(320033)
             D/f(200233)
              Em(022000)
               D(000232)
               C(032033)
             Em7(022033)



Intro
---------

         G                     D/f#             Em               D
e|-------3----------|----------0---------|-----------0--------|----------|
B|----------3-------|------------3-------|--------------0-----|----------|
G|-------------0----|---------------2----|-----------------0--|---2------|
D|----------------0-|------0-----------0-|-------2------------|---0------|
A|----2-------------|---0----------------|----2---------------|----------|
E|-3----------------|-2------------------|-0------------------|----------|


                            C             Em7plusG       D
  -----3p2-----------|----------------|----------3p-|----2------|
  --------3----------|----2-----------|-------------|----3------|
  --2--------2-------|-0-----0------0-|-------0-----|----2------|
  --------------0----|-2-------0h2----|----0--------|----0------|  Repeat
  -----------------0-|-3--------------|-2-----------|-----------|
  -------------------|----------------|-------------|-----------|



| h   hammer-on
| p   pull-off
Tap to rate this tab
# A B C D E F G H I J K L M N O P Q R S T U V W X Y Z