Guitaretab - guitar tabs
Song name
# A B C D E F G H I J K L M N O P Q R S T U V W X Y Z
Home / S / Stigma / Unknown tab

Stigma - Unknown tab

                         Unnamed song by stigma

| /  slide up
| \  slide down
| h  hammer-on
| p  pull-off
| ~  vibrato
| +  harmonic
| x  Mute note


e|-------[repeat 4x]-------this plays in back round until chorus starts----|
B|-------------------------------------------------------------------------|
G|-------------------------------------------------------------------------|
D|-------------------------------------------------------------------------|
A|--x0x0x0x0-x0x0x0----x0x0x0----------------------------------------------|
E|-------------------------------------------------------------------------|
                    [Repeat 2x]  (not chorus)
e|---------------------------------------------------------------------------|
B|---------------------------------------------------------------------------|
G|---------------------------------------------------------------------------|
D|---------------------------------------------------------------------------|
A|--------------------------------------3-2-1--------------------------------|
E|--1-2/3--1-2/3--1-2/3-3-33-2-1---1-2-3-------1-2/3-3-33-2-1--------------|
				CHORUS!! Repeat 2x
e|-------------------------------------------------------------------------|
B|-------------------------------------------------------------------------|
G|--2-2-2-2-x-x-3-3-3-3-------------x-x-5-5-5-5----------------------------|
D|--2-2-2-2-x-x-3-3-3-3-x-x-3-3-3-3-x-x-5-5-5-5----------------------------|
A|----------x-x-5-5-5-5-x-x-3-3-3-3-x-x-7-7-7-7----------------------------|
E|----------------------x-x-5-5-5-5----------------------------------------|

                    [Repeat 2x]  (not chorus)
e|-------------------------------------------------------------------------|
B|-------------------------------------------------------------------------|
G|-------------------------------------------------------------------------|
D|-------------------------------------------------------------------------|
A|----------------------------------------3-2-1----------------------------|
E|--1-2/3--1-2/3--1-2/3-3-33-2-1---1-2-3-------1-2/3-3-33-2-1------------|
[ Tab from: http://www.guitaretab.com/s/stigma/162441.html ]
					CHORUS!! Repeat 2x
e|-------------------------------------------------------------------------|
B|-------------------------------------------------------------------------|
G|--2-2-2-2-x-x-3-3-3-3-------------x-x-5-5-5-5----------------------------|
D|--2-2-2-2-x-x-3-3-3-3-x-x-3-3-3-3-x-x-5-5-5-5----------------------------|
A|----------x-x-5-5-5-5-x-x-3-3-3-3-x-x-7-7-7-7----------------------------|
E|----------------------x-x-5-5-5-5----------------------------------------|
					Solo!
e|---------------------------------------------------------------------------|
B|---------------------------------------------------------------------------|
G|---------------------------------------------------------------------------|
D|--111111111h321-111111111h3211111111113113113---3/10~---------------------|
A|---------------------------------------------------------------------------|
E|---------------------------------------------------------------------------|

e|---------------------------------------------------------------------------|
B|---------------------------------------------------------------------------|
G|---------------------------------------------------------------------------|
D|--10-10-10-13p12p11p-10-10-10-13p12p11p-10-10-10-13p12p11p-10/15~----------|
A|---------------------------------------------------------------------------|
E|---------------------------------------------------------------------------|
	A bunch of theese	TAPPING!!
e|--12p8p5-12p8p5-12p8p5-12p8p5-12p8p5-------------------------------------|
B|-------------------------------------------------------------------------|
G|-------------------------------------------------------------------------|
D|-------------------------------------------------------------------------|
A|-------------------------------------------------------------------------|
E|-------------------------------------------------------------------------|

A bunch of theese	TAPPING!!
e|--13p8p5-13p8p5-13p8p5-13p8p5-13p8p5-------------------------------------|
B|-------------------------------------------------------------------------|
G|-------------------------------------------------------------------------|
D|-------------------------------------------------------------------------|
A|-------------------------------------------------------------------------|
E|-------------------------------------------------------------------------|


A bunch of theese	TAPPING!!
e|--15p8p5-15p8p5-15p8p5-15p8p5-15p8p5------12~------------------------------|
B|------------------------------------------12~------------------------------|
G|---------------------------------------------------------------------------|
D|---------------------------------------------------------------------------|
A|---------------------------------------------------------------------------|
E|---------------------------------------------------------------------------|

                    [Repeat 2x]  (not chorus)
e|---------------------------------------------------------------------------|
B|---------------------------------------------------------------------------|
G|---------------------------------------------------------------------------|
D|---------------------------------------------------------------------------|
A|----------------------------------------3-2-1----3-2-1--2~-----------------|
E|--1-2/3--1-2/3--1-2/3-3-33-2-1---1-2-3-----------------2~-----------------|
Related for Unknown tab