Guitaretab - guitar tabs
Song name
# A B C D E F G H I J K L M N O P Q R S T U V W X Y Z

Stigma - Acid Gargle tab

www.stigma.ezhoster.com

STIGMA - 'Acid Gargle'


     Intro
E---||---------------------------------------|
B---||---------------------------------------|
G---||*--------------------------------------|
D---||*--------------------------------------|
A---||---------------------------------------|
E---||---0--0--4--0--0--4--0--0--4--0--0-----|

E--------------------------------------------|
B--------------------------------------------|
G--------------------------------------------|
D--------------------------------------------|
A--------------------------------------------|
E---4--0--0--4--0--0--0--5--0--0--5--0--0----|


                             4x  Verse
E----------------------------||-----|--------|
B----------------------------||-----|--------|
G---------------------------*||-----|--------|
D---------------------------*||--2--|--------|
A----------------------------||--2--|--------|
E---3--0--0--2--0--0--2--0---||--0--|--4-----|


                         Pre-chorus
E---------|-----------|----------------------|
B---------|-----------|----------------------|
G---------|-----------|--2--4--5--7--4--7----|
D---2-----|-----2-----|--2--4--5--7--4--7----|
A------2--|--------2--|--0--2--3--5--2--5----|
E---------|--3--------|----------------------|


          Chorus
E------|-------------------------------------|
B------|-------------------------------------|
G---3--|--9--7--7--2--2--5--5--0--0----------|
D---3--|--9--7--7--2--2--5--5--0--0--5--7----|
A---1--|--7--5--5--4--4--3--3--2--2--5--7----|
E------|--0--------------------------3--5----|


       Guitar Solo
E---|----------------------------------------|
B---|----------------------------------------|
G---|--1--4--0--1--4--0----------------12----|
D---|--------------------------12--14--------|
A---|----------------------------------------|
E---|--------------------0--0----------------|

E--------------------------------------------|
B-----------12--14--15--14--12---------------|
G---14--15----------------------15--14-------|
D--------------------------------------------|
A--------------------------------------------|
E--------------------------------------------|

E--------------------------------------------|
B-------------------------------------12-----|
G---12--------------------12--14--15---------|
D-------14--------12--14---------------------|
A--------------------------------------------|
E-----------0--0-----------------------------|

E--------------------------------------------|
B---14--15--14--12---------------------------|
G-------------------15--14--12---------------|
D-------------------------------14-----------|
A--------------------------------------------|
E--------------------------------------0-----|

E--------------------------------------------|
B--------------------------12--14--15--14----|
G--------------12--14--15--------------------|
D------12--14--------------------------------|
A--------------------------------------------|
E---0----------------------------------------|
[ Tab from: http://www.guitaretab.com/s/stigma/47720.html ]
E--------------------------------------------|
B---12---------------------------------------|
G-------15--14--12--------------------12-----|
D-------------------14--------12--14---------|
A--------------------------------------------|
E-----------------------0--0-----------------|

E--------------------------------------------|
B-----------12--14--15--14--12---------------|
G---14--15----------------------15--14-------|
D--------------------------------------------|
A--------------------------------------------|
E--------------------------------------------|


               Guitar Break
E-----------|--------------------------------|
B-----------|--------------------------------|
G---12------|--------------------------------|
D-------14--|-----------------2--------------|
A-----------|--------2-----------------2-----|
E-----------|--4--4-----4--4-----4--4--------|

E--------------------------------------------|
B--------------------------------------------|
G---------------------------------------2----|
D---------2--------------------2-------------|
A------------------2-----0--0-----0--0-------|
E---4--4-----4--4-----4----------------------|


                        Outro
E--------------------|-----------------------|
B--------------------|-----------------------|
G--------------------|-----------------------|
D---------5--0-------|-----------------------|
A---0--0--5--0-------|-----------------------|
E---------3--2--3p0--|--0--0--3^--0--3^------|

E--------------------------------------------|
B--------------------------------------------|
G--------------------------------------------|
D--------------------------------------------|
A--------------------------------------------|
E---0--0--3^--0--0--3^--0--3^-----0--0--3----|

E--------------------------------------------|
B--------------------------------------------|
G---------2----------------------------------|
D---------2--5--0----------------------------|
A---------0--5--0----------------------------|
E---^--------3--2----------------------------|


2003  Stigma

All rights reserved

=============================================
==          TABLATURE EXPLANATION          ==
=============================================

----------                ----------                ----t---|
----5h8--- Hammeron       ----(8)--- Ghost          ----6---| Tap
----------                ---------- Note           --------|
----5p8--- Pulloff        ----------                --------|

----------                ----------                -----p--|
----5/8--- Slide Up       -----x---- Dead           -----7--| Pop
----------                ---------- Note           --s-----|
----5\8--- Slide Down     ----------                --5-----| Slap

----------                ||------|| Repeat         --------|
----5~~~-- Vibrato        ||*----*||                ---5^---| Bend
----------                ||*----*||                --------|
----------                ||------||                --------|

----------                ----------                --------|
-4:------- Time           ----------                --------|
-4:------- Signature      ----------                --------|
----------                ----------                --------|

Rhythm:
  w = whole note            W = dotted whole
  h = half note             H = dotted half
  q = quarter note          Q = dotted quarter
  e = eighth note           E = dotted eighth
  s = sixteenth note        S = dotted sixteenth
  t = 32nd note             T = dotted 32nd
  x = 64th note             X = dotted 64th
  ^ = triplet
Related for Acid Gargle tab