Song name
# A B C D E F G H I J K L M N O P Q R S T U V W X Y Z

Still Life - Five Angels Above tab

Still Life - Five Angels Above
Submitted By: Andrew
EMail: unitbandct@yahoo.com


Alright, ill submit what I know!!!

Slow with unheavy distortion, not clean though, "tubeish."
|--------------------|
|--------------------|
|--14----13---13-----|
|12----12---12--12-12|  +2
|--------------------|
|--------------------|

|-------------------|
|-------------------|
|---14----14V(Bend!)|
|12----12-----------|
|-------------------|
|-------------------|


CHORUS: HEAVY!
|------------|
|------------|
|------------|
|0-3-0-3-0300|
|0-3-0-3-0300|
|0-3-0-3-0300|

|-------|
|---5V--|
|5-7----|
|-------|
|-------|
|-------|

VERSE: CLEAN
|-------------------------|
|-----------------------5V|
|-------------------5-7---|
|15-15-15-15-15-15--------|
|-------------------------|
|-------------------------|

I'LL PUT THE REST ON ONCE I LEARN IT. BRING BACK STILL LIFE!!!
Tap to rate this tab
# A B C D E F G H I J K L M N O P Q R S T U V W X Y Z