Song name
# A B C D E F G H I J K L M N O P Q R S T U V W X Y Z

Still Pending - Stop Spinning tab

-------------------------------------------------------------------------------
			     Stop Spinning - Still pending
-------------------------------------------------------------------------------
Tabbed by: jason reichl
Email: dirtyrottenlie@aol.com
Tuning:standard

  INTRO
e|---------------------------------------------------------------------------|
B|---------------------------------------------------------------------------|
G|-9-9-9-9-x-------------6-6-6-6-x-------------------------------------------|
D|-9-9-9-9-x-9-9-9-9-9-x-6-6-6-6-x-------------------------------------------|
A|-7-7-7-7-x-9-9-9-9-9-x-4-4-4-4-x-4-4-x-5-5-x---PLAY TWICE------------------|
E|-----------7-7-7-7-7-x-----------4-4-x-5-5x--------------------------------|

  PLAY THIS FOR VERSE 1, 2, AND 3
e|---------------------------------------------------------------------------|
B|---------------------------------------------------------------------------|
G|-9-9-9-9-x-------------6-6-6-6-x-------------------------------------------|
D|-9-9-9-9-x-9-9-9-9-9-x-6-6-6-6-x-------------------------------------------|
A|-7-7-7-7-x-9-9-9-9-9-x-4-4-4-4-x-4-4-x-5-5-x--PLAY THIS FOUR TIMES---------|
E|-----------7-7-7-7-7-x-----------4-4-x-5-5x--------------------------------|PALM ALL 
THE NOTES UNTIL.....:^

  CHORUS
e|---------------------------------------------------------------------------|
B|---------------------------------------------------------------------------|
G|-9-9-9-x-------------------------------------------------------------------|
D|-9-9-9-x-------------------------------------------------------------------|
A|-7-7-7-x-9-x-9-9-9-x-x-11-11-11-x-11--x--11-11-11--PLAY THREE TIMES--------|
E|---------7-x-7-7-7-x-x-9--9--9--x--9--x--9--9--9---------------------------|

  CHORUS (CONTINUED)
e|---------------------------------------------------------------------------|
B|---------------------------------------------------------------------------|
G|-9-9-9-9-9-9-9-9-----------------9-9-9-9-9-9-9-9---------------------------|
D|-9-9-9-9-9-9-9-9-9-9-9-9-9-9-9-9-9-9-9-9-9-9-9-9-9-9-9-9-9-9-9-9-----------|
A|-7-7-7-7-7-7-7-7-9-9-9-9-9-9-9-9-7-7-7-7-7-7-7-7-9-9-9-9-9-9-9-9-----------|
E|-----------------7-7-7-7-7-7-7-7-----------------7-7-7-7-7-7-7-7-----------|

  CHORUS (CONTINUED)
e|---------------------------------------------------------------------------|
B|---------------------------------------------------------------------------|
G|-9-9-9-9-9-9-9-9-----------------------------------------------------------|
D|-9-9-9-9-9-9-9-9-9-9-9-9-9-9-9-9-7-7-7-7-7-7-7-7---------------------------|
A|-7-7-7-7-7-7-7-7-9-9-9-9-9-9-9-9-7-7-7-7-7-7-7-7---------------------------|
E|-----------------7-7-7-7-7-7-7-7-5-5-5-5-5-5-5-5---------------------------|

   CHORUS (CONTINUED)
e|---------------------------------------------------------------------------|
B|---------------------------------------------------------------------------|
G|---------------9-9-9-9-9---------------------------------------------------|
D|-11-11-11-11-x-9-9-9-9-9-x-9-9-9-9-x-9-9-9-9-9-----------------------------|
A|-11-11-11-11-x-7-7-7-7-7-x-9-9-9-9-x-9-9-9-9-9--REPEAT FOUR TIMES----------|
E|-9--9--9--9--x-------------7-7-7-7-x-7-7-7-7-7-----------------------------|

REPEAT VERSE (INSTEAD OF REPEATING IT 4 TIMES REPEAT IT SIX TIMES)

REPEAT CHORUS

REPEAT VERSE (REPEAT IT 4 TIMES)

REPEAT CHORUS AND END WITH A:

e|---------

B|---------

G|-9-------

D|-9-------

A|-7-------

E|---------

| x  Mute note
===============================================================================
Tap to rate this tab
# A B C D E F G H I J K L M N O P Q R S T U V W X Y Z