Guitaretab - guitar tabs
Song name
# A B C D E F G H I J K L M N O P Q R S T U V W X Y Z

Still Pending - All Gone All Wrong tab

song: All Gone, All Wrong

Band: Still Pending


an easy song by an american band concisting of 12-year old kids, but they are actually 
good!


(intro and verses are played without distortion, distortion comes in on the A5 before 
chorus)

intro and verse:
[ Tab from: http://www.guitaretab.com/s/still-pending/92028.html ]
 pm...   ...   .....              ...   ...   ...
e|--------------------------------------------------------------------|
B|--------------------------------------------------------------------|
G|-9-9-9-------7-7-7-----------9--9-9-------7-7-7---------------------|
D|-9-9-9-9-9-9-7-7-7-7--7-7-7--9--9-9-9-9-9-7-7-7-7--7-7-7------------|
A|-7-7-7-9-9-9-5-5-5-7--7-7-7--7--7-7-9-9-9-5-5-5-7--7-7-7------------|
E|-------7-7-7-------5--5-5-5---------7-7-7-------5--5-5-5------------|


chorus:

e|--------------------------------------------------------------------|
B|--------------------------------------------------------------------|
G|-9-9-9-9---------7-7-7-7--------------------------------------------|
D|-9-9-9-9-9-9-9-9-7-7-7-7-7-7-7-7------------------------------------|
A|-7-7-7-7-9-9-9-9-5-5-5-5-7-7-7-7------------------------------------|
E|---------7-7-7-7---------5-5-5-5------------------------------------|


I don't know if the timing is exact, but listen to the song
and you'll figure it out on your own


good luck, and have fun :)

girl_from_sweden
Related for All Gone All Wrong tab
All Gone All Wrong chords by Still Pending