Song name
# A B C D E F G H I J K L M N O P Q R S T U V W X Y Z

Still Remains - Bliss tab

e-----------------------------------------|
B-----------------------------------------|
G-----------------------------------------|
D----------------------------7------------|
A-7-7-7-5-5-5-10-10-10-5-5-5-7------------|
D-7-7-7-5-5-5-10-10-10-5-5-5-7------------|


e-----------------------------------------|
B-----------------------------------------|
G-----------------------------------------|
D-2--2-2-2-2-2-2-2-2-2--------------------|
A-2--2-2-2-2-2-2-2-2-2--------------------|  x4
D-2--2-2-2-2-2-2-2-2-2--------------------|

I pretty much found this out in 5 minutes of playing my guitar.
Feel free to contact me if you have any other parts,or corrections for this song 
on... xThisWarIsOursx@hotmail.com
Thanks.
Tap to rate this tab
 
# A B C D E F G H I J K L M N O P Q R S T U V W X Y Z