Song name
# A B C D E F G H I J K L M N O P Q R S T U V W X Y Z

Still Remains - Dancing With The Enemy tab

-------------------------------------------------------------------------------
		                         Dancing With The Enemy - Still Remains
-------------------------------------------------------------------------------
Tabbed by: metalmonkey147
Email:

Tuning: Drop C

|--------------------------------------------------------------------------------------|
|---------------------------------------------------------------------------4p2---2----|
|-6-6-XX-6-6\------6-6-XX-6-6\-----4-4-XX-4-4\--------------4p2-----------------4------|
|-6-6-XX-6-6\------6-6-XX-6-6\-----4-4-XX-4-4\---------2----------2-----4--------------|
|-4-4-XX-4-4\------4-4-XX-4-4\-----2-2-XX-2-2\-----0-0---0------0---2-2---2------------|
|--------------------------------------------------------------------------------------|
                                                   . .   .      .   . .   .

|---------------------------------------------------------------------------|
|---------------------------------------------------------------------------|
|-6-6-XX-6-6-----------------------6-6-XX-6-6-------------------------------|
|-6-6-XX-6-6-6-6-6-6-6-6-6-6-6-6-6-6-6-XX-6-6-6-6-6-6-6-6-6-6-6-6-6---------|
|-4-4-XX-4-4-4-4-4-4-4-4-4-4-4-4-4-4-4-XX-4-4-4-4-4-4-4-4-4-4-4-4-4---------|
|---------------------------------------------------------------------------|
             . . . . . . . . . . .            . . . . . . . . . . .

|---------------------------------------------------------------------------|
|----------------------------------------------------------4p2---2----------|
|-4-4-XX-4-4-------------------------------4p2-----------------4------------|
|-4-4-XX-4-4-4-4-4-4-4-4-4-4-4-4-4-----2---------2-----4--------------------|
|-2-2-XX-2-2-2-2-2-2-2-2-2-2-2-2-2-0-0---0-----0---2-2---2------------------|
|---------------------------------------------------------------------------|
             . . . . . . . . . . . . .   .     .   . .   .

|---------------------------------------------------------------------------|
|---------------------------------------------------------------------------|
|---------------------------------------------------------------------------|
|-7-------------(7)--------------2--------------(2)---------------9---------|
|-7-------------(7)--------------2--------------(2)---------------9---------|
|-7-------------(7)--------------2--------------(2)---------------9---------|

|---------------------------------------------------------------------------|
|-------------------------------------------------12-12-12-12-12-12-12-12---|
|-------------------------------------------------X--X--X--X--X--X--X--X----|
|-7-----------------------------------------------9--9--9--9--9--9--9--9----|
|-7-7-7-7-7-7-7-7-7-7-7-7-7-7-7-7-2-2-2-2-2-2-2-2---------------------------|
|-7-7-7-7-7-7-7-7-7-7-7-7-7-7-7-7-2-2-2-2-2-2-2-2---------------------------|
    . . . . . . . . . . . . . . . . . . . . . . .
|---------------------------------------------------------------------------|
|---------------------------------------------------------------------------|
|---------------------------------------------------------------------------|
|-11-11-11-11-11-11-11-2-2-2-2-2-2-2-2-2-9-9-9-9-9-9-9-7-7-7-7-7-7-7-7-7----|
|-11-11-11-11-11-11-11-2-2-2-2-2-2-2-2-2-9-9-9-9-9-9-9-7-7-7-7-7-7-7-7-7----|
|-11-11-11-11-11-11-11-2-2-2-2-2-2-2-2-2-9-9-9-9-9-9-9-7-7-7-7-7-7-7-7-7----|

|---------------------------------------------------------------------------|
|---------------------------------------------------------------------------|
|---------------------------------------------------------------------------|
|-11-11-11-11-11-11-11-2-2-2-2-2-2-2-2-2-9-9-9-9-9-9-11-7-7-7-7-7-7-9-9-9---|
|-11-11-11-11-11-11-11-2-2-2-2-2-2-2-2-2-9-9-9-9-9-9-11-7-7-7-7-7-7-9-9-9---|
|-11-11-11-11-11-11-11-2-2-2-2-2-2-2-2-2-9-9-9-9-9-9-11-7-7-7-7-7-7-9-9-9---|

|---------------------------------------------------------------------------|
|---------------------------------------------------------------------------|
|---------------------------------------------------------------------------|
|-11-11-11-11-11-11-11-2-2-2-2-2-2-2-2-2-9-9-9-9-9-9-9-7-7-7-7-7-7-7-7-7----|
|-11-11-11-11-11-11-11-2-2-2-2-2-2-2-2-2-9-9-9-9-9-9-9-7-7-7-7-7-7-7-7-7----|
|-11-11-11-11-11-11-11-2-2-2-2-2-2-2-2-2-9-9-9-9-9-9-9-7-7-7-7-7-7-7-7-7----|

|---------------------------------------------------------------------------|
|---------------------------------------------------------------------------|
|---------------------------------------------------------------------------|
|-11-11-11-11-11-11-11-2-2-2-2-2-2-2-2-2-9-9-9-9-9-9-11-7-7-7-7-7-7-9-9-9---|
|-11-11-11-11-11-11-11-2-2-2-2-2-2-2-2-2-9-9-9-9-9-9-11-7-7-7-7-7-7-9-9-9---|
|-11-11-11-11-11-11-11-2-2-2-2-2-2-2-2-2-9-9-9-9-9-9-11-7-7-7-7-7-7-9-9-9---|

|--------------------------------------------------------------------------------------|
|---------------------------------------------------------------------------4p2---2----|
|-6-6-XX-6-6\\-----6-6-XX-6-6\\----4-4-XX-4-4\\-------------4p2-----------------4------|
|-6-6-XX-6-6\\-----6-6-XX-6-6\\----4-4-XX-4-4\\--------2----------2-----4--------------|
|-4-4-XX-4-4\\-----4-4-XX-4-4\\----2-2-XX-2-2\\----0-0---0------0---2-2---2------------|
|--------------------------------------------------------------------------------------|
                                                   . .   .      .   . .   .

|---------------------------------------------------------------------------|
|---------------------------------------------------------------------------|
|-6-6-XX-6-6-----------------------6-6-XX-6-6-------------------------------|
|-6-6-XX-6-6-6-6-6-6-6-6-6-6-6-6-6-6-6-XX-6-6-6-6-6-6-6-6-6-6-6-6-6---------|
|-4-4-XX-4-4-4-4-4-4-4-4-4-4-4-4-4-4-4-XX-4-4-4-4-4-4-4-4-4-4-4-4-4---------|
|---------------------------------------------------------------------------|
             . . . . . . . . . . .            . . . . . . . . . . .

|---------------------------------------------------------------------------|
|---------------------------------------------------------------------------|
|-4-4-XX-4-4----------------------------------------------------------------|
|-4-4-XX-4-4-4-4-4-4-4-4-4-4-4-4-4------------------------------------------|
|-2-2-XX-2-2-2-2-2-2-2-2-2-2-2-2-2-7-7-7-7-7-7-7-7-9-9-9-9-9-9-9-9----------|
|----------------------------------7-7-7-7-7-7-7-7-9-9-9-9-9-9-9-9----------|
             . . . . . . . . . . . . . . . . . . . . . . . . . . .

|---------------------------------------------------------------------------|
|---------------------------------------------------------------------------|
|---------------------------------------------------------------------------|
|-11-11-11-11-11-11-11-2-2-2-2-2-2-2-2-2-9-9-9-9-9-9-9-7-7-7-7-7-7-7-7-7----|
|-11-11-11-11-11-11-11-2-2-2-2-2-2-2-2-2-9-9-9-9-9-9-9-7-7-7-7-7-7-7-7-7----|
|-11-11-11-11-11-11-11-2-2-2-2-2-2-2-2-2-9-9-9-9-9-9-9-7-7-7-7-7-7-7-7-7----|

|---------------------------------------------------------------------------|
|---------------------------------------------------------------------------|
|---------------------------------------------------------------------------|
|-11-11-11-11-11-11-11-2-2-2-2-2-2-2-2-2-9-9-9-9-9-9-11-7-7-7-7-7-7-9-9-9---|
|-11-11-11-11-11-11-11-2-2-2-2-2-2-2-2-2-9-9-9-9-9-9-11-7-7-7-7-7-7-9-9-9---|
|-11-11-11-11-11-11-11-2-2-2-2-2-2-2-2-2-9-9-9-9-9-9-11-7-7-7-7-7-7-9-9-9---|

|---------------------------------------------------------------------------|
|---------------------------------------------------------------------------|
|---------------------------------------------------------------------------|
|-11-11-11-11-11-11-11-2-2-2-2-2-2-2-2-2-9-9-9-9-9-9-9-7-7-7-7-7-7-7-7-7----|
|-11-11-11-11-11-11-11-2-2-2-2-2-2-2-2-2-9-9-9-9-9-9-9-7-7-7-7-7-7-7-7-7----|
|-11-11-11-11-11-11-11-2-2-2-2-2-2-2-2-2-9-9-9-9-9-9-9-7-7-7-7-7-7-7-7-7----|

|---------------------------------------------------------------------------|
|---------------------------------------------------------------------------|
|---------------------------------------------------------------------------|
|-11-11-11-11-11-11-11-2-2-2-2-2-2-2-2-2-9-9-9-9-9-9-11-7-7-7-7-7-7-9-9-9---|
|-11-11-11-11-11-11-11-2-2-2-2-2-2-2-2-2-9-9-9-9-9-9-11-7-7-7-7-7-7-9-9-9---|
|-11-11-11-11-11-11-11-2-2-2-2-2-2-2-2-2-9-9-9-9-9-9-11-7-7-7-7-7-7-9-9-9---|

|----------------------------------------------------|
|-12-------12-------12----10-------10-------10-------|
|----13-13----13-13----13----13-13----13-13----13----|
|----------------------------------------------------| x2
|----------------------------------------------------|
|----------------------------------------------------|
     .  .     .  .     .     .  .     .  .     .

|----------------------------------------------------|
|----------------------------------------------------|
|-13-------13-------13----11-------11-------11-------|
|----14-14----14-14----14----14-14----14-14----14----| x2
|----------------------------------------------------|
|----------------------------------------------------|
     .  .     .  .     .     .  .     .  .     .

|----------------------------------------------------|
|-12-------12-------12----10-------10-------10-------|
|----13-13----13-13----13----13-13----13-13----13----|
|----------------------------------------------------| x2
|----------------------------------------------------|
|----------------------------------------------------|
     .  .     .  .     .     .  .     .  .     .

|----------------------------------------------------|
|----------------------------------------------------|
|----13----13----13----13----11----11----11----11----|
|-14----14----14----14----14----14----14----14-------| x2
|----------------------------------------------------|
|----------------------------------------------------|
  .     .     .     .     .     .     .     .

|---------------------------------------------------------------------------|
|---------------------------------------------------------------------------|
|-12/13--13-----------------------------------------------------------------|
|-13/14--14----------2---------(2)-------9-9-9-9-9-9-9-7-7-7-7-7-7-7-7-7----|
|--------------------2---------(2)-------9-9-9-9-9-9-9-7-7-7-7-7-7-7-7-7----|
|--------------------2---------(2)-------9-9-9-9-9-9-9-7-7-7-7-7-7-7-7-7----|

|---------------------------------------------------------------------------|
|---------------------------------------------------------------------------|
|---------------------------------------------------------------------------|
|-11-11-11-11-11-11-11-2-2-2-2-2-2-2-2-2-9-9-9-9-9-9-11-7-7-7-7-7-7-9-9-9---|
|-11-11-11-11-11-11-11-2-2-2-2-2-2-2-2-2-9-9-9-9-9-9-11-7-7-7-7-7-7-9-9-9---|
|-11-11-11-11-11-11-11-2-2-2-2-2-2-2-2-2-9-9-9-9-9-9-11-7-7-7-7-7-7-9-9-9---|

|---------------------------------------------------------------------------|
|---------------------------------------------------------------------------|
|---------------------------------------------------------------------------|
|-11-11-11-11-11-11-11-2-2-2-2-2-2-2-2-2-9-9-9-9-9-9-9-7-7-7-7-7-7-7-7-7----|
|-11-11-11-11-11-11-11-2-2-2-2-2-2-2-2-2-9-9-9-9-9-9-9-7-7-7-7-7-7-7-7-7----|
|-11-11-11-11-11-11-11-2-2-2-2-2-2-2-2-2-9-9-9-9-9-9-9-7-7-7-7-7-7-7-7-7----|

|---------------------------------------------------------------------------|
|-------------------------------------------------------------------12-12-12|
|-------------------------------------------------------------------X--X--X-|
|-11-11-11-11-11-11-11-2-2-2-2-2-2-2-2-2-9-9-9-9-9-9-11-7-7-7-7-7-7-9--9--9-|
|-11-11-11-11-11-11-11-2-2-2-2-2-2-2-2-2-9-9-9-9-9-9-11-7-7-7-7-7-7---------|
|-11-11-11-11-11-11-11-2-2-2-2-2-2-2-2-2-9-9-9-9-9-9-11-7-7-7-7-7-7---------|

|---------------------------------------------------------------------------|
|---------------------------------------------------------------------------|
|---------------------------------------------------------------------------|
|-11-11-11-11-11-11-11-2-2-2-2-2-2-2-2-2-9-9-9-9-9-9-9-7-7-7-7-7-7-7-7-7----|
|-11-11-11-11-11-11-11-2-2-2-2-2-2-2-2-2-9-9-9-9-9-9-9-7-7-7-7-7-7-7-7-7----|
|-11-11-11-11-11-11-11-2-2-2-2-2-2-2-2-2-9-9-9-9-9-9-9-7-7-7-7-7-7-7-7-7----|

|---------------------------------------------------------------------------|
|---------------------------------------------------------------------------|
|---------------------------------------------------------------------------|
|-11-11-11-11-11-11-11-2-2-2-2-2-2-2-2-2-9-9---9-9-----7--------------------|
|-11-11-11-11-11-11-11-2-2-2-2-2-2-2-2-2-9-9---9-9-----7--------------------|
|-11-11-11-11-11-11-11-2-2-2-2-2-2-2-2-2-9-9---9-9-----7--------------------|



************************************

| .   palm mute
| /   slide up
| \   slide down
| h   hammer-on
| p   pull-off
| ~   vibrato
| *   harmonic
| x   Mute note
| b   Bend
| pb  Pre-bend
| br  Bend release
| pbr Pre-bend release
| brb Bend release bend

************************************
Tap to rate this tab
# A B C D E F G H I J K L M N O P Q R S T U V W X Y Z