Song name
# A B C D E F G H I J K L M N O P Q R S T U V W X Y Z

Still Remains - An Undesired Reunion tab

The solo actually has two guitars playing together but I just found the tabs for one. Im
not the best at finding out tabs by listening to a song so this isnt going to be 100%
accurate. I just thought that sice this is a cool song and noone else has put the solo 
on ultimate guitar tabs that I should try my best to figure it out.

Hope this helps...

E-----------------------------------------------------------------|
B---------13-12-13------------------------------------------------|
G------10~--------12-10-10--10-12-10~9~---9-10-12-9-10-9-10-9-10^-|
D--12~--------------------12-----------10~------------------------|
A-----------------------------------------------------------------|
D-----------------------------------------------------------------|

E---------------------------------------------10-------------|
B----------------------------------------10-13--13-12-13-12--|
G-12-10-12-10~-10-12-10--10--10-12-10--10------------------12|
D----------------------12~-12--------12----------------------|
A------------------------------------------------------------|
D------------------------------------------------------------|

E--------------------------------------------------------------------|
B--------------------------------------------------------------------|
G-14-14-141212-14-14121212-14-10~1010-12-10--10-10~9~---10-10-12--10-|
D------------------------------------------12--------10~--------12---|
A--------------------------------------------------------------------|
D--------------------------------------------------------------------|

E-------------------------------------------------------------------|*
B-------------------------------18--------------------------------15|*
G---10--10~9~-9-10-9---14-17-14---17-14-14-17-14-17-19-17-17-14-17--|*
D-12--12------------12~---------------------------------------------|*
A-------------------------------------------------------------------|*
D-------------------------------------------------------------------|*


~ = vibrato/let ring
^ =  hold note but dont bend

Rock On!!!!!!!!!!!!!!
Tap to rate this tab
# A B C D E F G H I J K L M N O P Q R S T U V W X Y Z