Song name
# A B C D E F G H I J K L M N O P Q R S T U V W X Y Z

Still Remains - In A Place Of Hope tab

Band= still remains
Album= Of Love and Lunancy
Guitarist= jordan and mike
tabber= jesse
Tunning= DROP C     CGCFAD

After seeing them live twice and meeting them twice plus some live videos 
alot of this tab seems off but its the closest your ganna get with out
getting personal lessons from Mike and Jordans themselves. If someone Can correct any of this
let me know PLEASE. and if aany still remains fans want to add me on msn or aim goahead.
msn= how_many_iraqis_per_gallon@hotmail.com
aim= stareandwonder06

STILL REMAINS OWNS ALLLL, ALLLLLLLLLLLLLLLLLLLLLLLLLLLLL
                1st guitar                 
e|---------------------------------------------------------------------------|
B|---------------------------------------------------------------------------|
G|---------------------------------------------------------------------------|
D|---------------------------------------------------------------------------|
A|-0--5-----0--5-----6~-----5-----0--5-----8~--------------------------------|
E|-0-----0--------0------0-----0--------0------------------------------------|
         x        x      x     x        x

e|---------------------------------------------------------------------------|
B|---------------------------------------------------------------------------|
G|---------------------------------------------------------------------------|
D|---------------------------------------------------------------------------|
A|----5----0--5-----6-----5--------------------------------------------------|
E|-0----0--------0-----0-----0--5--0--8--7~----------------------------------|
   x    x        x      x    x     x

e|---------------------------------------------------------------------------|
B|---------------------------------------------------------------------------|
G|---------------------------------------------------------------------------|
D|-0~------------------------------------------------------------------------|
A|-0~------------------------------------------------------------------------|
E|-0~------------------------------------------------------------------------|

               1st guitar            
e|---------------------------------------------------------------------------|
B|---------------------------------------------------------------------------|
G|---------------------------------------------------------------------------|
D|---------------------------------------------------------------------------|
A|-0--5-----0--5-----6~-----5-----0--5-----8~--------------------------------|
E|-0-----0--------0------0-----0--------0------------------------------------|
         x        x      x     x        x

e|---------------------------------------------------------------------------|
B|---------------------------------------------------------------------------|
G|---------------------------------------------------------------------------|
D|---------------------------------------------------------------------------|
A|----5----0--5-----6-----5--------------------------------------------------|
E|-0----0--------0-----0-----0--5--0--8--7~----------------------------------|
   x    x        x      x    x     x

e|--------------------------------------------------------------------------|
B|--------------------------------------------------------------------------|
G|------------------pickslide-----------------------------------------------|
D|-0~----------/xxxxxxxxxxxxxxxxxxxxxxxxx-----------------------------------|
A|-0~----------/xxxxxxxxxxxxxxxxxxxxxxxxx-----------------------------------|
E|-0~----------/xxxxxxxxxxxxxxxxxxxxxxxxx-----------------------------------|

             1st and second guitar              x2
e|---------------------------------------------------------------------------|
B|---------------------------------------------------------------------------|
G|---------------------------------------------------------------------------|
D|---------------------------------------------------------------------------|
A|-0--5-----0--5-----6~-----5-----0--5-----8~--------------------------------|
E|-0-----0--------0------0-----0--------0------------------------------------|
         x        x      x     x        x

e|---------------------------------------------------------------------------|
B|---------------------------------------------------------------------------|
G|---------------------------------------------------------------------------|
D|---------------------------------------------------------------------------|
A|----5----0--5-----6-----5--------------------------------------------------|
E|-0----0--------0-----0-----0--5--0--8--7~----------------------------------|
   x    x        x      x    x     x


                1st and second guitar           x1                  
e|---------------------------------------------------------------------------|
B|---------------------------------------------------------------------------|
G|---------------------------------------------------------------------------|
D|---------------------------------------------------------------------------|
A|-0--5-----0--5-----8~-----5-----0--5-----6~--------------------------------|
E|-0-----0--------0------0-----0--------0------------------------------------|
         x        x      x     x        x

e|---------------------------------------------------------------------------|
B|---------------------------------------------------------------------------|
G|---------------------------------------------------------------------------|
D|---------------------------------------------------------------------------|
A|----5----0--5-----6-----5--------------------------------------------------|
E|-0----0--------0-----0-----0--5--0--8--7~----------------------------------|
   x    x        x      x    x     x

e|---------------------------------------------------------------------------|
B|---------------------------------------------------------------------------|
G|---------------------------------------------------------------------------|
D|---------------------------------------------------------------------------|
A|-0--5-----0--5-----6~-----5-----0--5-----8~--------------------------------|
E|-0-----0--------0------0-----0--------0------------------------------------|
         x        x      x     x        x

e|---------------------------------------------------------------------------|
B|---------------------------------------------------------------------------|
G|---------------------------------------------------------------------------|
D|---------------------------------------------------------------------------|
A|----5----0--5-----6-----5--------------------------------------------------|
E|-0----0--------0-----0-----0--5--0--8--7~----------------------------------|
   x    x        x      x    x     x

                 1st guitar
e|---------------------------------------------------------------------------|
B|---------------------------------------------------------------------------|
G|---------------------------------------------------------------------------|
D|-0~-----------------------------------8----10~----------8--7~--------------|
A|-0~-----------------------------------8----10~----------8--7~--------------|
E|-0~-----------------------------------8----10~----------8--7~--------------|

                  2nd guitar
e|---------------------------------------------------------------------------|
B|---------------------------------------------------------------------------|
G|-7~-----------------------------------3----5~-----------3--2~--------------|
D|-x------------------------------------x----x------------x------------------|
A|-5~-----------------------------------1----3~-----------1--0~--------------|
E|---------------------------------------------------------------------------|

                  3rd guitar let the top tab go over once then come in on
this( not in the right timing, cant hear to well
got this from a live video at www.fabchannel.com, scroll down and it says
still remains.)
e|----------/15-/13--/17-----/19--/17----------------------------------------|
B|-/15-/13-------------------------------------------------------------------|
G|---------------------------------------------------------------------------|
D|---------------------------------------------------------------------------|
A|---------------------------------------------------------------------------|
E|---------------------------------------------------------------------------|

e|---------/15-/13----------/19~---------------------------------------------|
B|-/15-/13-------------------------------------------------------------------|
G|---------------------------------------------------------------------------|
D|---------------------------------------------------------------------------|
A|---------------------------------------------------------------------------|
E|---------------------------------------------------------------------------|


chorus:  x2    let the little child run, run away
e|---------------------------------------------------------------------------|
B|---------------------------------------------------------------------------|
G|-10-10-10-10-10-10-10-10-10-10--7-7-7-7--x--9-9-9-9-9-9-9-9-9-9------------|
D|-x--x--x--x--x--x--x--x--x--x---x-x-x-x--x--x-x-x-x-x-x-x-x-x-x------------|
A|-8--8--8--8--8--8--8--8--8--8---5-5-5-5--x--7-7-7-7-7-7-7-7-7-7------------|
E|---------------------------------------------------------------------------|

e|---------------------------------------------------------------------------|
B|---------------------------------------------------------------------------|
G|-12-12---12--7-7-7-7-7-7-7-7-7-7-7-7-7-7--x--7-7--x-7-7--x-9-9--x--12-12---|
D|-x--x----x---x-x-x-x-x-x-x-x-x-x-x-x-x-x--x--x-x--x-x-x--x-x-x--x--x--x----|
A|-10-10---10--5-5-5-5-5-5-5-5-5-5-5-5-5-5--x--5-5--x-5-5--x-7-7--x--10-10---|
E|---------------------------------------------------------------------------|

                    ending part 2nd guitar
e|---------------------------------------------------------------------------|
B|---------------------------------------------------------------------------|
G|----10--10----10--10-----12--12-----15--15~--------------------------------|
D|-0--x---x--0--x---x---0--x---x---0--x---x----------------------------------|
A|-0--8---8--0--8---8---0--10--10--0--13--13~--------------------------------|
E|-0---------0----------0----------0-----------------------------------------|
   x         x          x          x



e|---------------------------------------------------------------------------|
B|---------------------------------------------------------------------------|
G|---------------------------------------------------------------------------|
D|-0---------0--0~------/xxxxxxxxxxxxxxxxxxxxxxxxxxxxxx----------------------|
A|-0---------0--0~------/xxxxxxxxxxxxxxxxxxxxxxxxxxxxxx----------------------|
E|-0---------0--0~------/xxxxxxxxxxxxxxxxxxxxxxxxxxxxxx----------------------|


         1st guitar and 2nd guitar        
e|---------------------------------------------------------------------------|
B|---------------------------------------------------------------------------|
G|---------------------------------------------------------------------------|
D|---------------------------------------------------------------------------|
A|-0--5-----0--5-----6~-----5-----0--5-----8~--------------------------------|
E|-0-----0--------0------0-----0--------0------------------------------------|
         x        x      x     x        x

e|---------------------------------------------------------------------------|
B|---------------------------------------------------------------------------|
G|---------------------------------------------------------------------------|
D|---------------------------------------------------------------------------|
A|----5----0--5-----6-----5--------------------------------------------------|
E|-0----0--------0-----0-----0--5--0--8--7~----------------------------------|
   x    x        x      x    x     x

e|---------------------------------------------------------------------------|
B|---------------------------------------------------------------------------|
G|---------------------------------------------------------------------------|
D|---------------------------------------------------------------------------|
A|-0--5-----0--5-----6~-----5-----0--5-----8~--------------------------------|
E|-0-----0--------0------0-----0--------0------------------------------------|
         x        x      x     x        x

e|---------------------------------------------------------------------------|
B|---------------------------------------------------------------------------|
G|---------------------------------------------------------------------------|
D|---------------------------------------------------------------------------|
A|----5----0--5-----6-----5--------------------------------------------------|
E|-0----0--------0-----0-----0--5--0--8--7~----------------------------------|
   x    x        x      x    x     x

                                      
e|---------------------------------------------------------------------------|
B|---------------------------------------------------------------------------|
G|---------------------------------------------------------------------------|
D|---------------------------------------------------------------------------|
A|-0--5-----0--5-----8~-----5-----0--5-----6~--------------------------------|
E|-0-----0--------0------0-----0--------0------------------------------------|
         x        x      x     x        x

e|---------------------------------------------------------------------------|
B|---------------------------------------------------------------------------|
G|---------------------------------------------------------------------------|
D|---------------------------------------------------------------------------|
A|----5----0--5-----6-----5--------------------------------------------------|
E|-0----0--------0-----0-----0--5--0--8--7~----------------------------------|
   x    x        x      x    x     x

e|---------------------------------------------------------------------------|
B|---------------------------------------------------------------------------|
G|---------------------------------------------------------------------------|
D|---------------------------------------------------------------------------|
A|-0--5-----0--5-----6~-----5-----0--5-----8~--------------------------------|
E|-0-----0--------0------0-----0--------0------------------------------------|
         x        x      x     x        x

e|---------------------------------------------------------------------------|
B|---------------------------------------------------------------------------|
G|---------------------------------------------------------------------------|
D|---------------------------------------------------------------------------|
A|----5----0--5-----6-----5--------------------------------------------------|
E|-0----0--------0-----0-----0--5--0--8--7~----------------------------------|
   x    x        x      x    x     x

            1st guitar
e|---------------------------------------------------------------------------|
B|---------------------------------------------------------------------------|
G|---------------------------------------------------------------------------|
D|-0--------0---0--------0-0--------/12\\-----------3p2----------------------|
A|-0--------0---0--------0-0--------/12\\------5-----------3---5----7p5---3~-|
E|-0--------0---0--------0-0--------/12\\-0-0-----0------0---0---0------0----|
                                            x x     x     x   x   x

e|---------------------------------------------------------------------------|
B|---------------------------------------------------------------------------|
G|---------------------------------------------------------------------------|
D|-0--------0---0--------0-0--------/12\\------------3p2---------------------|
A|-0--------0---0--------0-0--------/12\\------5-----------3---5----7p5---3~-|
E|-0--------0---0--------0-0--------/12\\-0-0-----0------0---0---0------0----|
                                            x x          x   x   x
             2nd guitar
e|---------------------------------------------------------------------------|
B|---------------------------------------------------------------------------|
G|---------------------------------------------------------------------------|
D|-0--------0---0--------0-0--------/12\\------3-----7p5---2---3----5p3---2~-|
A|-0--------0---0--------0-0--------/12\\------------------------------------|
E|-0--------0---0--------0-0--------/12\\-0-0-----0------0---0---0------0----|

e|---------------------------------------------------------------------------|
B|---------------------------------------------------------------------------|
G|---------------------------------------------------------------------------|
D|-0--------0---0--------0-0--------/12\\------3-----7p5---2---3----5p3---2~-|
A|-0--------0---0--------0-0--------/12\\------------------------------------|
E|-0--------0---0--------0-0--------/12\\-0-0-----0------0---0---0------0----|

chorus:  
e|---------------------------------------------------------------------------|
B|---------------------------------------------------------------------------|
G|-10-10-10-10-10-10-10-10-10-10--7-7-7-7--x--9-9-9-9-9-9-9-9-9-9------------|
D|-x--x--x--x--x--x--x--x--x--x---x-x-x-x--x--x-x-x-x-x-x-x-x-x-x------------|
A|-8--8--8--8--8--8--8--8--8--8---5-5-5-5--x--7-7-7-7-7-7-7-7-7-7------------|
E|---------------------------------------------------------------------------|

e|---------------------------------------------------------------------------|
B|---------------------------------------------------------------------------|
G|-12-12---12--7-7-7-7-7-7-7-7-7-7-7-7-7-7--x--7-7--x-7-7--x-9-9--x--12-12---|
D|-x--x----x---x-x-x-x-x-x-x-x-x-x-x-x-x-x--x--x-x--x-x-x--x-x-x--x--x--x----|
A|-10-10---10--5-5-5-5-5-5-5-5-5-5-5-5-5-5--x--5-5--x-5-5--x-7-7--x--10-10---|
E|---------------------------------------------------------------------------|

              ending part 2nd guitar
e|---------------------------------------------------------------------------|
B|---------------------------------------------------------------------------|
G|----10--10----10--10-----12--12-----15--15~--------------------------------|
D|-0--x---x--0--x---x---0--x---x---0--x---x----------------------------------|
A|-0--8---8--0--8---8---0--10--10--0--13--13~--------------------------------|
E|-0---------0----------0----------0-----------------------------------------|
   x         x          x          x


e|---------------------------------------------------------------------------|
B|---------------------------------------------------------------------------|
G|-10-10-10-10-10-10-10-10-10-10--7-7-7-7--x--9-9-9-9-9-9-9-9-9-9------------|
D|-x--x--x--x--x--x--x--x--x--x---x-x-x-x--x--x-x-x-x-x-x-x-x-x-x------------|
A|-8--8--8--8--8--8--8--8--8--8---5-5-5-5--x--7-7-7-7-7-7-7-7-7-7------------|
E|---------------------------------------------------------------------------|

e|---------------------------------------------------------------------------|
B|---------------------------------------------------------------------------|
G|-12-12---12--7-7-7-7-7-7-7-7-7-7-7-7-7-7-7-7-7-7-7-7-7-10-10-10-10-10-10-10|
D|-x--x----x---x-x-x-x-x-x-x-x-x-x-x-x-x-x-x-x-x-x-x-x-x-x--x--x--x--x--x--x-|
A|-10-10---10--5-5-5-5-5-5-5-5-5-5-5-5-5-5-5-5-5-5-5-5-5-8--8--8--8--8--8--8-|
E|---------------------------------------------------------------------------|
        
                    1st guitar  x4                
e|---------------------------------------------------------------------------|
B|---------------------------------------------------------------------------|
G|-------10----------------12--------15--------------------------------------|
D|-------x-----------------x---------x---------------------------------------|
A|-0--0--8--0--0--0-----0--10--0--0--13--------------------------------------|
E|-0--0-----0--0--0-----0------0--0------------------------------------------|
   x  x     x  x  x     x      x  x

                 2nd guitar
e|---------------------------------------------------------------------------|
B|---------------------------------------------------------------------------|
G|-------7-----------------9---------12--------------------------------------|
D|-------x-----------------x---------x---------------------------------------|
A|-0--0--5--0--0--0-----0--7---0--0--10--------------------------------------|
E|-0--0-----0--0--0-----0------0--0------------------------------------------|
   x  x     x  x  x     x      x  x


                     both guitars x2                  
e|---------------------------------------------------------------------------|
B|---------------------------------------------------------------------------|
G|---------------------------------------------------------------------------|
D|---------------------------------------------------------------------------|
A|---------------------------------------------------------------------------|
E|-0--0-12-0--0--0----0-14-0--0-17----0--0-12-0--0--0----0-14-0--0-12-12-----|

                   1ST guitar
e|---------------------------------------------------------------------------|
B|---------------------------------------------------------------------------|
G|-3-3-3-3-3-3-3-3--3-3-3-3-3-3-3-3--5-5-5-5-5-5-5-5--7-7-7-7--9-9-9-9-------|
D|-x-x-x-x-x-x-x-x--x-x-x-x-x-x-x-x--x-x-x-x-x-x-x-x--x-x-x-x--x-x-x-x-------|
A|-1-1-1-1-1-1-1-1--1-1-1-1-1-1-1-1--3-3-3-3-3-3-3-3--5-5-5-5--7-7-7-7-------|
E|---------------------------------------------------------------------------|

                    2nd guitar
e|---------------------------------------------------------------------------|
B|---------------------------------------------------------------------------|
G|---------------------------------------------------------------------------|
D|-8-8-8-8-8-8-8-8--8-8-8-8-8-8-8-8--10-10-10-10-10-10-10-10--12-12-12-12----|
A|-8-8-8-8-8-8-8-8--8-8-8-8-8-8-8-8--10-10-10-10-10-10-10-10--12-12-12-12----|
E|-8-8-8-8-8-8-8-8--8-8-8-8-8-8-8-8--10-10-10-10-10-10-10-10--12-12-12-12----|

e|---------------------------------------------------------------------------|
B|---------------------------------------------------------------------------|
G|---------------------------------------------------------------------------|
D|-14-14-14-14---------------------------------------------------------------|
A|-14-14-14-14---------------------------------------------------------------|
E|-14-14-14-14---------------------------------------------------------------|

             both guitars x1                  
e|---------------------------------------------------------------------------|
B|---------------------------------------------------------------------------|
G|---------------------------------------------------------------------------|
D|---------------------------------------------------------------------------|
A|---------------------------------------------------------------------------|
E|-0--0-12-0--0--0----0-14-0--0-17----0--0-12-0--0--0----0-14-0--0-12-12-----|


                   1ST guitar
e|---------------------------------------------------------------------------|
B|---------------------------------------------------------------------------|
G|-3-3-3-3-3-3-3-3--3-3-3-3-3-3-3-3--10-10-10-10-10-10-10-10--9-9-9-9-5-5-5-5|
D|-x-x-x-x-x-x-x-x--x-x-x-x-x-x-x-x--x--x--x--x--x--x--x--x---x-x-x-x-x-x-x-x|
A|-1-1-1-1-1-1-1-1--1-1-1-1-1-1-1-1--8--8--8--8--8--8--8--8---7-7-7-7-3-3-3-3|
E|---------------------------------------------------------------------------|

                    2nd guitar
e|---------------------------------------------------------------------------|
B|---------------------------------------------------------------------------|
G|---------------------------------------------------------------------------|
D|-8-8-8-8-8-8-8-8--8-8-8-8-8-8-8-8--10-10-10-10-10-10-10-10--9-9-9-9-5-5-5-5|
A|-8-8-8-8-8-8-8-8--8-8-8-8-8-8-8-8--8--8--8--8--8--8--8--8---7-7-7-7-3-3-3-3|
E|-8-8-8-8-8-8-8-8--8-8-8-8-8-8-8-8------------------------------------------|


             both guitars x2                  
e|---------------------------------------------------------------------------|
B|---------------------------------------------------------------------------|
G|---------------------------------------------------------------------------|
D|---------------------------------------------------------------------------|
A|---------------------------------------------------------------------------|
E|-0--0-12-0--0--0----0-14-0--0-17----0--0-12-0--0--0----0-14-0--0-12-12-----|

        1st guitar
e|---------------------------------------------------------------------------|
B|---------------------------------------------------------------------------|
G|---------------------------------------------------------------------------|
D|-0~-----------------------------------8----10~----------8--7~--------------|
A|-0~-----------------------------------8----10~----------8--7~--------------|
E|-0~-----------------------------------8----10~----------8--7~--------------|

                  2nd guitar
e|---------------------------------------------------------------------------|
B|---------------------------------------------------------------------------|
G|-7~-----------------------------------3----5~------------3--2~-------------|
D|-x------------------------------------x----x-------------x-----------------|
A|-5~-----------------------------------1----3~------------1--0~-------------|
E|---------------------------------------------------------------------------|

                  3rd guitar same as top.
        I dont know this part so sorry just play this, ill fix it soon.

e|----------/15-/13--/17-----/19--/17----------------------------------------|
B|-/15-/13-------------------------------------------------------------------|
G|---------------------------------------------------------------------------|
D|---------------------------------------------------------------------------|
A|---------------------------------------------------------------------------|
E|---------------------------------------------------------------------------|

e|---------/15-/13----------/19~---------------------------------------------|
B|-/15-/13-------------------------------------------------------------------|
G|---------------------------------------------------------------------------|
D|---------------------------------------------------------------------------|
A|---------------------------------------------------------------------------|
E|---------------------------------------------------------------------------|

chorus:  x2
e|---------------------------------------------------------------------------|
B|---------------------------------------------------------------------------|
G|-10-10-10-10-10-10-10-10-10-10--7-7-7-7--x--9-9-9-9-9-9-9-9-9-9------------|
D|-x--x--x--x--x--x--x--x--x--x---x-x-x-x--x--x-x-x-x-x-x-x-x-x-x------------|
A|-8--8--8--8--8--8--8--8--8--8---5-5-5-5--x--7-7-7-7-7-7-7-7-7-7------------|
E|---------------------------------------------------------------------------|

e|---------------------------------------------------------------------------|
B|---------------------------------------------------------------------------|
G|-12-12---12--7-7-7-7-7-7-7-7-7-7-7-7-7-7--x--7-7--x-7-7--x-9-9--x--12-12---|
D|-x--x----x---x-x-x-x-x-x-x-x-x-x-x-x-x-x--x--x-x--x-x-x--x-x-x--x--x--x----|
A|-10-10---10--5-5-5-5-5-5-5-5-5-5-5-5-5-5--x--5-5--x-5-5--x-7-7--x--10-10---|
E|---------------------------------------------------------------------------|
 
               ending part 2nd guitar
e|---------------------------------------------------------------------------|
B|---------------------------------------------------------------------------|
G|----10--10----10--10-----12--12-----15--15~--------------------------------|
D|-0--x---x--0--x---x---0--x---x---0--x---x----------------------------------|
A|-0--8---8--0--8---8---0--10--10--0--13--13~--------------------------------|
E|-0---------0----------0----------0-----------------------------------------|
   x         x          x          x


                  Both guitars
e|---------------------------------------------------------------------------|
B|---------------------------------------------------------------------------|
G|----10-10-10-10-10-10-10-10-10-10-10-10-10-10------------------------------|
D|-0--x--x--x--x--x--x--x--x--x--x--x--x--x--x-------------------------------|
A|-0--8--8--8--8--8--8--8--8--8--8--8--8--8--8-------------------------------|
E|-0-------------------------------------------------------------------------|

e|--------------------------------------------------------------------------|
B|--------------------------------------------------------------------------|
G|-----10-10-10-10-10-10-10-10-10-10-10-10-10-10----------------------------|
D|-10--x--x--x--x--x--x--x--x--x--x--x--x--x--x----3~----3~-----/12\\-------|
A|-10--8--8--8--8--8--8--8--8--8--8--8--8--8--8----3~----3~-----/12\\-------|
E|-10----------------------------------------------3~----3~-----/12\\-------|

          1st guitar
e|------------------------------------|
B|------------------------------------|
G|------------------------------------|
D|-----------3p2----------------------|
A|------5-----------3---5----7p5---3~-|
E|-0-0------0-----0---0---0------0----|
   x x     x     x   x   x      x

           2nd guitar
e|-----------------------------------|
B|-----------------------------------|
G|-----------------------------------|
D|------3-----7p5---2---3----5p3---2~|
A|-----------------------------------|
E|-0-0-----0------0---0---0------0---|
   x x     x      x   x   x      x


                  Both guitars
e|---------------------------------------------------------------------------|
B|---------------------------------------------------------------------------|
G|----10-10-10-10-10-10-10-12-12-12-12-12-12-12------------------------------|
D|-0--x--x--x--x--x--x--x--x--x--x--x--x--x--x-------------------------------|
A|-0--8--8--8--8--8--8--8--10-10-10-10-10-10-10------------------------------|
E|-0-------------------------------------------------------------------------|

e|--------------------------------------------------------------------------|
B|--------------------------------------------------------------------------|
G|-----10-10-10-10-10-10-10-9-9-9-9-9-9-9-----------------------------------|
D|-10--x--x--x--x--x--x--x--x-x-x-x-x-x-x----3~----3~-----------------------|
A|-10--8--8--8--8--8--8--8--7-7-7-7-7-7-7----3~----3~-----------------------|
E|-10----------------------------------------3~----3~-----------------------|


                          1st guitar
e|---------------------------------------------------------------------------|
B|---------------------------------------------------------------------------|
G|----7--7-----7--7-----9--9-----12--12~-------------------------------------|
D|-0--x--x--0--x--x--0--x--x--0--x---x---------------------------------------|
A|-0--5--5--0--5--5--0--7--7--0--10--12~-------------------------------------|
E|-0--------0--------0--------0----------------------------------------------|
   x        x        x        x

e|---------------------------------------------------------------------------|
B|---------------------------------------------------------------------------|
G|----7--7-----7--7-----9--9-----12--12~-------------------------------------|
D|-0--x--x--0--x--x--0--x--x--0--x---x---------------------------------------|
A|-0--5--5--0--5--5--0--7--7--0--10--12~-------------------------------------|
E|-0--------0--------0--------0----------------------------------------------|
   x        x        x        x

                       2nd guitar
e|---------------------------------------------------------------------------|
B|---------------------------------------------------------------------------|
G|----10--10----10--10-----12--12-----15--15~--------------------------------|
D|-0--x---x--0--x---x---0--x---x---0--x---x----------------------------------|
A|-0--8---8--0--8---8---0--10--10--0--13--13~--------------------------------|
E|-0---------0----------0----------0-----------------------------------------|
   x         x          x          x

e|---------------------------------------------------------------------------|
B|---------------------------------------------------------------------------|
G|----10--10----10--10-----12--12-----15--15~--------------------------------|
D|-0--x---x--0--x---x---0--x---x---0--x---x----------------------------------|
A|-0--8---8--0--8---8---0--10--10--0--13--13~--------------------------------|
E|-0---------0----------0----------0-----------------------------------------|
   x         x          x          x


Tap to rate this tab
# A B C D E F G H I J K L M N O P Q R S T U V W X Y Z