Song name
# A B C D E F G H I J K L M N O P Q R S T U V W X Y Z

Still Remains - I Can Revive Him With My Own Hands tab

Author/Artist: Still Remains
Title: I Can Revive Him With My Own Hands
Album: Of Love and Lunacy


Tuning - Drop C (low to high CGCFAD)

Tab Legend
*:pinched harmonic
^:natural harmonic
pm:palm mute
/:slide
~:hold note
x:muted string
///X:pick scratch


intro
D-----------------------------------------------------------------------------|
A-----------------------------------------------------------------------------|
F---7777777777777777-------7-777777/-10-10101010/-9-----------/12-121212------|
C---xxxxxxxxxxxxxxxx-(X2)--x-xxxxxx---x--x-x-x-x--x-8-888888----x--x-x-x------|
G---5555555555555555-------5-555555/--8--8-8-8-8/-7-8-888888--/10-101010------|
C---------------------------------------------------8-888888------------------|

D-----------------------------------------------------------------------------|
A-----------------------------------------------------------------------------|
F---101010--------------------------------------------------------------------|
C----x-x-x--7-7777777777777---------------------------------------------------|
G----8-8-8--7-7777777777777--8*-----------------------------------------------|
C-----------7-7777777777777---------------------------------------------------|

D-----------------------------------------------------------------------------|
A-----------------------------------------------------------------------------|
F-----------------------------------------------------------------------------|
C---0-0-00-0-0-00-0-0-00-0-0-0------------------------------------------------|
G---0-0-00-0-0-00-0-0-00-0-0-0------------------------------------------------|
C---0-0-00-0-0-00-0-0-00-0-0-0------------------------------------------------|
pm  . . .. . . .. . . .. . . .

Verse 1
D-----------------------------------------------------------------------------|
A-----------------------------------------------------------------------------|
F---7777777/-10-10101010/-9-----------/12-121212/-101010----------------------|
C---xxxxxxx---x--x-x-x-x--x-8-888888----x--x-x-x---x-x-x--7-7777777-----------|
G---5555555/--8--8-8-8-8/-7-8-888888--/10-101010/--8-8-8--7-7777777-----------|
C---------------------------8-888888----------------------7-7777777-----------|

D-----------------------------------------------------------------------------|
A-----------------------------------------------------------------------------|
F-----------------------------------------------------------------------------|
C-----------------------0-0-00-0-0-00-0-0-00-0-0-0----------------------------|
G---888-777-888-101010--0-0-00-0-0-00-0-0-00-0-0-0----------------------------|
C-----------------------0-0-00-0-0-00-0-0-00-0-0-0----------------------------|
pm                      . . .. . . .. . . .. . . .

D-----------------------------------------------------------------------------|
A-----------------------------------------------------------------------------|
F---7777777/-10-10101010/-9-----------/12-121212/-101010----------------------|
C---xxxxxxx---x--x-x-x-x--x-8-888888----x--x-x-x---x-x-x--7-7777777777777-----|
G---5555555/--8--8-8-8-8/-7-8-888888--/10-101010/--8-8-8--7-7777777777777--8*-|
C---------------------------8-888888----------------------7-7777777777777-----|


D-----------------------------------------------------------------------------|
A-----------------------------------------------------------------------------|
F-----------------------------------------------------------------------------|
C---0-0-00-0-0-00-0-0--0-000-000--0-0--00--0-0--0--8-5-7-0--------------------|
G---0-0-00-0-0-00-0-0--0-000-000--0-0--00--0-0--0--8-5-7-0--------------------|
C---0-0-00-0-0-00-0-0--0-000-000--0-0--00--0-0--0--8-5-7-0--------------------|
pm  . . .. . . .. . .  . ... ...  . .  ..  . .  .

Verse 2(X2)
D-----------------------------------------------------------------------------|
A-----------------------------------------------------------------------------|
F---7777777-7777777--10101010101010--9999999--10101010101010--10101010101010--|
C---xxxxxxx-xxxxxxx---x-x-x-x-x-x-x--xxxxxxx---x-x-x-x-x-x-x---x-x-x-x-x-x-x--|
G---5555555-5555555---8-8-8-8-8-8-8--7777777---8-8-8-8-8-8-8---8-8-8-8-8-8-8--|
C-----------------------------------------------------------------------------|

D-----------------------------------------------------------------------------|
A-----------------------------------------------------------------------------|
F---10101010101010--9999999---------------------------------------------------|
C----x-x-x-x-x-x-x--xxxxxxx--8888888-8888888--7777777-777777~-----------------|
G----8-8-8-8-8-8-8--7777777--8888888-8888888--7777777-777777~-----------------|
C----------------------------8888888-8888888--7777777-777777~-----------------|

D-----------------------------------------------------------------------------|
A-----------------------------------------------------------------------------|
F-----------------------------------------------------------------------------|
C---0-0-0-0-0-0-0-0-0-0-0-0-0-0-0-0-----------7----8-8-8----------------------|
G---0-0-0-0-0-0-0-0-0-0-0-0-0-0-0-0--8-7-8-10---10----------------------------|
C---0-0-0-0-0-0-0-0-0-0-0-0-0-0-0-0-0-0-0-0--0-0--0---------------------------|
pm  . . . . . . . . . . . . . . . . . . . .  . .  .

D-----------------------------------------------------------------------------|
A-----------------------------------------------------------------------------|
F-----------------------------------------------------------------------------|
C---0-0-0-0-000-0-0-0-0-0-0-000-0-0-0-0-----------7----8-8-8------------------|
G---0-0-0-0-000-0-0-0-0-0-0-000-0-0-0-0--8-7-8-10---10------------------------|
C---0-0-0-0-000-0-0-0-0-0-0-000-0-0-0-0-0-0-0-0--0-0--0-0-0-------------------|
pm  . . . . ... . . . . . . ... . . . . . . . .  . .  . . .

Keyboard Solo

Interlude (X5)
D-----------------------------------------------------------------------------|
A-----------------------------------------------------------------------------|
F-----------------------------------------------------------------------------|
C-------8-0--0-0000-0-0-----00------0000--0-----------------------------------|
G---5^--8-0--0-0000-0-0-----00------0000--0-----------------------------------|
C-------8-0--0-0000-0-0-----00------0000--0-----------------------------------|
pm           . .... . .     ..      ....  .

D----------------------------------------------------------------------------|
A----------Fifth time end with this------------------------------------------|
F----------------------------------------------------------------------------|
C-------8------------------------0--0-0-0-0-0-0--0---------------------------|
G---5^--8------------------------0--0-0-0-0-0-0--0---------------------------|
C-------8--88888888101010107777--0--0-0-0-0-0-0--0---------------------------|
pm         ....................     . . . . . .

Chorus
D-----------------------------------------------------------------------------|
A-----------------------------------------------------------------------------|
F-------------/12-121212121212/-14-141414141414/-12-121212121212--------------|
C---8-888888----x--x-x-x-x-x-x---x--x-x-x-x-x-x---x--x-x-x-x-x-x--------------|
G---8-888888--/10-101010101010/-12-121212121212/-10-101010101010--------------|
C---8-888888------------------------------------------------------------------|

D-----------------------------------------------------------------------------|
A-----------------------------------------------------------------------------|
F---/-14-141414141414/-12-121212121212----------------------------------------|
C------x--x-x-x-x-x-x---x--x-x-x-x-x-x----------------------------------------|
G---/-12-121212121212/-10-101010101010----------------------------------------|
C-----------------------------------------------------------------------------|

D-----------------------------------------------------------------------------|
A-----------------------------------------------------------------------------|
F-----------------------------------------------------------------------------|
C---0---------0---------------------------------------------------------------|
G---0--8-7h8--0--8-10-8-7-----------------------------------------------------|
C---0-0-0-----0-0-0-----------------------------------------------------------|
pm    . .       . .

D-----------------------------------------------------------------------------|
A-----------------------------------------------------------------------------|
F-------------/12-121212121212/-14-141414141414/-12-121212121212--------------|
C---8-888888----x--x-x-x-x-x-x---x--x-x-x-x-x-x---x--x-x-x-x-x-x--------------|
G---8-888888--/10-101010101010/-12-121212121212/-10-101010101010--------------|
C---8-888888------------------------------------------------------------------|

D-----------------------------------------------------------------------------|
A-----------------------------------------------------------------------------|
F---/-14-141414141414/-12-121212121212----------------------------------------|
C------x--x-x-x-x-x-x---x--x-x-x-x-x-x----------------------------------------|
G---/-12-121212121212/-10-101010101010----------------------------------------|
C-----------------------------------------------------------------------------|

D-----------------------------------------------------------------------------|
A-----------------------------------------------------------------------------|
F-----------------------------------------------------------------------------|
C---0---------0------------0-----------8-5-7-0--------------------------------|
G---0--8-7h8--0--8-10-8-7--0--8-7h8----8-5-7-0--------------------------------|
C---0-0-0-----0-0-0--------0-0-0-------8-5-7-0--------------------------------|
pm    . .       . .          . .

Verse 2
D-----------------------------------------------------------------------------|
A-----------------------------------------------------------------------------|
F---7777777-7777777--10101010101010--9999999--10101010101010--10101010101010--|
C---xxxxxxx-xxxxxxx---x-x-x-x-x-x-x--xxxxxxx---x-x-x-x-x-x-x---x-x-x-x-x-x-x--|
G---5555555-5555555---8-8-8-8-8-8-8--7777777---8-8-8-8-8-8-8---8-8-8-8-8-8-8--|
C-----------------------------------------------------------------------------|

D-----------------------------------------------------------------------------|
A-----------------------------------------------------------------------------|
F---10101010101010--9999999---------------------------------------------------|
C----x-x-x-x-x-x-x--xxxxxxx--8888888-8888888--7777777-777777~-----------------|
G----8-8-8-8-8-8-8--7777777--8888888-8888888--7777777-777777~-----------------|
C----------------------------8888888-8888888--7777777-777777~-----------------|

Breakdown(X4)
D------------------------------------|----------------------------------------|
A------------------------------------|--forth time end with this--------------|
F------------------------------------|----------------------------------------|
C---1/5-0--000-0-0-000-0-0-000-0-0-0-|---1/5-0--000-0-0-00000-----------------|
G---1/5-0--000-0-0-000-0-0-000-0-0-0-|---1/5-0--000-0-0-00000-----------------|
C---1/5-0--000-0-0-000-0-0-000-0-0-0-|---1/5-0--000-0-0-00000-----------------|
pm      .  ... . . ... . . ... . . .         .  ... . . .....

Breakdown 2(X2)
D-----------------------------------------------------------------------------|
A-----------------------------------------------------------------------------|
F----------------------------------------------------second time 8*-----------|
C---0-0--0-000-0-0-------------------0-0--0-000-0-0---------------------------|
G---0-0--0-000-0-0--9-10-9-7-9-7-----0-0--0-000-0-0--9-10-9-7-9-7-------------|
C---0-0--0-000-0-0---------------10--0-0--0-000-0-0---------------8-----------|
pm  . .  . ... . .                   . .  . ... . .

D-----------------------------------------------------------------------------|
A-----------------------------------------------------------------------------|
F-----------------------------------------------------------------------------|
C---0-0--0-000-0-0-------------------0-0--0-000-0-0---------------------------|
G---0-0--0-000-0-0--9-10-9-7-9-7-----0-0--0-000-0-0--9-10-9-7-9-7-10----------|
C---0-0--0-000-0-0---------------10--0-0--0-000-0-0---------------------------|
pm  . .  . ... . .                   . .  . ... . .

Chorus
D-----------------------------------------------------------------------------|
A-----------------------------------------------------------------------------|
F-------------/12-121212121212/-14-141414141414/-12-121212121212--------------|
C---8-888888----x--x-x-x-x-x-x---x--x-x-x-x-x-x---x--x-x-x-x-x-x--------------|
G---8-888888--/10-101010101010/-12-121212121212/-10-101010101010--------------|
C---8-888888------------------------------------------------------------------|

D-----------------------------------------------------------------------------|
A-----------------------------------------------------------------------------|
F---/-14-141414141414/-12-121212121212----------------------------------------|
C------x--x-x-x-x-x-x---x--x-x-x-x-x-x----------------------------------------|
G---/-12-121212121212/-10-101010101010----------------------------------------|
C-----------------------------------------------------------------------------|

D-----------------------------------------------------------------------------|
A-----------------------------------------------------------------------------|
F-----------------------------------------------------------------------------|
C---0---------0---------------------------------------------------------------|
G---0--8-7h8--0--8-10-8-7-----------------------------------------------------|
C---0-0-0-----0-0-0-----------------------------------------------------------|
pm    . .       . .

D-----------------------------------------------------------------------------|
A-----------------------------------------------------------------------------|
F-------------/12-121212121212/-14-141414141414/-12-121212121212--------------|
C---8-888888----x--x-x-x-x-x-x---x--x-x-x-x-x-x---x--x-x-x-x-x-x--------------|
G---8-888888--/10-101010101010/-12-121212121212/-10-101010101010--------------|
C---8-888888------------------------------------------------------------------|

D-----------------------------------------------------------------------------|
A-----------------------------------------------------------------------------|
F---/-14-141414141414/-12-121212121212----------------------------------------|
C------x--x-x-x-x-x-x---x--x-x-x-x-x-x----------------------------------------|
G---/-12-121212121212/-10-101010101010----------------------------------------|
C-----------------------------------------------------------------------------|

D-----------------------------------------------------------------------------|
A-----------------------------------------------------------------------------|
F-----------------------------------------------------------------------------|
C---0---------0------------0---------0----------------------------------------|
G---0--8-7h8--0--8-10-8-7--0--8-7h8--0--8-10-8-7------------------------------|
C---0-0-0-----0-0-0--------0-0-0-----0-0-0------------------------------------|
pm    . .       . .          . .       . .

Bridge
D-----------------------------------------------------------------------------|
A-----------------------------------------------------------------------------|
F----------------9/-14/-12/-9-------------------------------------------------|
C---///X---0~----x---x---x--x-------------------------------------------------|
G---///X---0~----7/-12/-10/-7-------------------------------------------------|
C---///X---0~-----------------------------------------------------------------|

Bridge 2
D-----------------------------------------------------------------------------|
A-----------------------------------------------------------------------------|
F-----------------------------------------------------------------------------|
C-----------------------------------------------------------------------------|
G---8p0-8p0-8p0-8p0-8p0-8p0-8p0-10p0-12p0-12p0-12p0-12p0----------------------|
C-----------------------------------------------------------------------------|

D-----------------------------------------------------------------------------|
A-----------------------------------------------------------------------------|
F-----------------------------------------------------------------------------|
C-----------------------------------------------------------------------------|
G---10p0-10p0-7p0-7p0(X2)-----------------------------------------------------|
C-----------------------------------------------------------------------------|

D-----------------------------------------------------------------------------|
A-----------------------------------------------------------------------------|
F-----------------------------------------------------------------------------|
C---12p0-12p0-12p0-12p0-12p0-12p0-12p0-14p0-16p0-16p0-16p0-16p0---------------|
G-----------------------------------------------------------------------------|
C-----------------------------------------------------------------------------|

D-----------------------------------------------------------------------------|
A-----------------------------------------------------------------------------|
F-----------------------------------------------------------------------------|
C---14p0-14p0-11p0-11p0-(X2)--------------------------------------------------|
G-----------------------------------------------------------------------------|
C-----------------------------------------------------------------------------|

Outro(X3)
D-----------------------------------------------------------------------------|
A-----------------------------------------------------------------------------|
F-----------------------------------------------------------------------------|
C-------8-0--0-0000-0-0-----00------0000-0------------------------------------|
G---5^--8-0--0-0000-0-0-----00------0000-0------------------------------------|
C-------8-0--0-0000-0-0-----00------0000-0------------------------------------|
pm           . .... . .     ..      .... .

D-----------------------------------------------------------------------------|
A----Third time end with------------------------------------------------------|
F-----------------------------------------------------------------------------|
C-------8~---7~~~-------------------------------------------------------------|
G---5^--8~---7~~~-------------------------------------------------------------|
C-------8~---7~~~-------------------------------------------------------------|
Tap to rate this tab
 
# A B C D E F G H I J K L M N O P Q R S T U V W X Y Z