Song name
# A B C D E F G H I J K L M N O P Q R S T U V W X Y Z

Still Remains - An Undesired Reunion tab

Henric_inte_henke@hotmail.com

e---0----0-----0-----0-----0---0--:
B-5--5-7---7-8---8-3---3-1---0----:
G---------------------------------:
D---------------------------------:
A---------------------------------:
E---------------------------------:

e---0----0-----0-----0-----0---0--:
B-5--5-7---7-8---8-8---8-8---8----:
G---------------------------------:
D---------------------------------:
A---------------------------------:
E---------------------------------:

e---0----0-----0-----0-----0---0--:
B-5--5-7---7-8---8-3---3-1---0----:
G---------------------------------:
D---------------------------------:
A---------------------------------:
E---------------------------------:

e---0----0-----0-----0-----0---0--:
B-5--5-7---7-8---8-10---10-12---12:
G---------------------------------:
D---------------------------------:
A---------------------------------:
E---------------------------------:

e--------------------------------------:
B--------------------------------------:
G--------------------------------------:
D-7-7-7-7-7-7-7-7-7-7-7-7-7-7-7-7------:
A-5-5-5-5-5-5-5-5-5-5-5-5-5-5-5-5------:
E-5-5-5-5-5-5-5-5-5-5-5-5-5-5-5-5------:

e--------------------------------------:
B--------------------------------------:
G--------------------------------------:
D-2-2-2-2-2-2-2-2-2-2-2-2-9-9-9-9------:
A-2-2-2-2-2-2-2-2-2-2-2-2-7-7-7-7------:
E-2-2-2-2-2-2-2-2-2-2-2-2-7-7-7-7------:

e------------------------------:
B------------------------------:
G------------------------------:   
D------------------------------:   x4
A------------------------------:
E-0-----000----0-----000-------:

e--------------------------------------:
B--------------------------------------:
G--------------------------------------:
D-7-7-7-7-7-7-7-7-7-7-7-7-7-7-7-7------:
A-5-5-5-5-5-5-5-5-5-5-5-5-5-5-5-5------:
E-5-5-5-5-5-5-5-5-5-5-5-5-5-5-5-5------:

e--------------------------------------:
B--------------------------------------:
G--------------------------------------:
D-2-2-2-2-2-2-2-2-2-2-2-2-9-9-9-9------:
A-2-2-2-2-2-2-2-2-2-2-2-2-7-7-7-7------:
E-2-2-2-2-2-2-2-2-2-2-2-2-7-7-7-7------:


Piano....
Tap to rate this tab
 
# A B C D E F G H I J K L M N O P Q R S T U V W X Y Z