Song name
# A B C D E F G H I J K L M N O P Q R S T U V W X Y Z

Still Remains - The Task tab

-------------------------------------------------------------------------------
			     THE TASK - STILL REMAINS
-------------------------------------------------------------------------------
This is my first Tab so keep cool if its not 100 % right.
Im working on it , because i've just found out the intro.
Tabbed by:MiCz
Email:MiCz.M4@gmx.de

Tuning:CGCFAD	Both Guitars
1.Guitar
D|---------------------------------------------------------------------------|
A|---------------------------------------------------------------------------|
F|---------------------------------------------------------------------------|
C|--------------------7/8--6--4-------------7/8--6-4---------------7/8--6--4-|
G|---------------------------------------------------------------------------|
C|1/8\1---1-1-1--1-1-1----------1-1-1-1-1-1----------4-4-4--4-4-4------------|
          . . .  . . .          . . . . . .          . . .  . . .

2.Guitar
D|---------------------------------------------------------------------------|
A|---------------------------------------------------------------------------|
F|---------------------------------------------------------------------------|
C|--------------------3/4--3--1-------------3/4--3-1---------------3/4--3--1-|
G|---------------------------------------------------------------------------|
C|1/8\1---1-1-1--1-1-1----------1-1-1-1-1-1----------4-4-4--4-4-4------------|
          . . .  . . .          . . . . . .          . . .  . . .  
1.Guitar
D|---------------------------------------------------------------------------|
A|---------------------------------------------------------------------------|
F|---------------------------------------------------------------------------|
C|------------7/8--6-4-------------7/8--6--4------------7/8--6-4-------------|
G|---------------------2-2-2--2-2-2---------2-2-2-2-2-2---------4-4-4--4-4-4-|
C|-4-4-4-4-4-4---------------------------------------------------------------|
   . . . . . .         . . .  . . .         . . . . . .         . . .  . . .

2.Guitar
D|---------------------------------------------------------------------------|
A|---------------------------------------------------------------------------|
F|---------------------------------------------------------------------------|
C|------------3/4--3-1--------------3/4--3--1-----------3/4--3-1-------------|
G|---------------------2-2-2--2-2-2---------2-2-2-2-2-2---------4-4-4--4-4-4-|
C|-4-4-4-4-4-4---------------------------------------------------------------|
   . . . . . .         . . .  . . .         . . . . . .         . . .  . . .

1.Guitar
D|---------------------------------------------------------------------------|
A|---------------------------------------------------------------------------|
F|------------------14/15-13-10----------------------------------------------|
C|-7/8-6-4--9/11-8-6---------------------------------------------------------|
G|---------------------------------------------------------------------------|
C|---------------------------------------------------------------------------|

2.Guitar
D|---------------------------------------------------------------------------|
A|---------------------------------------------------------------------------|
F|------------------10/11-10-6-----------------------------------------------
C|-3/4-3-1--5/8-6-3----------------------------------------------------------|
G|---------------------------------------------------------------------------|
C|---------------------------------------------------------------------------|

1.Guitar
D|---------------------------------------------------------------------------|
A|---------------------------------------------------------------------------|
F|---------------------------------------------------------------------------|
C|----------------7/8--6--4------------7/8--6-4----------------7/8--6--4-----|
G|---------------------------------------------------------------------------|
C|---1-1-1--1-1-1----------1-1-1-1-1-1----------4-4-4--4-4-4-----------------|
     . . .  . . .          . . . . . .          . . .  . . .

2.Guitar
D|---------------------------------------------------------------------------|
A|---------------------------------------------------------------------------|
F|---------------------------------------------------------------------------|
C|----------------3/4--3--1------------3/4--3-1----------------3/4--3--1-----|
G|---------------------------------------------------------------------------|
C|--1-1-1--1-1-1-----------1-1-1-1-1-1----------4-4-4--4-4-4-----------------|
    . . .  . . .           . . . . . .          . . .  . . .

1.Guitar
D|---------------------------------------------------------------------------|
A|---------------------------------------------------------------------------|
F|---------------------------------------------------------------------------|
C|------------7/8--6-4-------------7/8--6--4------------7/8--6-4-------------|
G|---------------------2-2-2--2-2-2---------2-2-2-2-2-2---------4-4-4--4-4-4-|
C|-4-4-4-4-4-4---------------------------------------------------------------|
   . . . . . .         . . .  . . .         . . . . . .         . . .  . . .

2.Guitar
D|---------------------------------------------------------------------------|
A|---------------------------------------------------------------------------|
F|---------------------------------------------------------------------------|
C|------------3/4--3-1-------------3/4--3--1------------3/4--3-1-------------|
G|---------------------2-2-2--2-2-2---------2-2-2-2-2-2---------4-4-4--4-4-4-|
C|-4-4-4-4-4-4---------------------------------------------------------------|
   . . . . . .         . . .  . . .         . . . . . .         . . .  . . .

1.Guitar
D|---------------------------------------------------------------------------|
A|---------------------------------------------------------------------------|
F|------------14/15-13-11-10-------------------------------------------------|
C|---7/8-6-4-----------------------------------------------------------------|
G|---------------------------------------------------------------------------|
C|---------------------------------------------------------------------------|

2. Guitar
D|---------------------------------------------------------------------------|
A|---------------------------------------------------------------------------|
F|------------10/11-10-6-3---------------------------------------------------|
C|---3/4-3-1-----------------------------------------------------------------|
G|---------------------------------------------------------------------------|
C|---------------------------------------------------------------------------|



| /  slide up
| \  slide down
| h  hammer-on
| p  pull-off
| ~  vibrato
| +  harmonic
| x  Mute note
| .  Palm Mute
===============================================================================
Tap to rate this tab
# A B C D E F G H I J K L M N O P Q R S T U V W X Y Z