Song name
# A B C D E F G H I J K L M N O P Q R S T U V W X Y Z

Still Remains - Dancing With The Enemy tab

Help us improve GuitareTab! Take a short survey!
no one has tabbed this and it's an amazing song, so i thought i would tab it;)

. = Palm Mute
\ = Slide Down
~ = Vibrato
h = Hammer On
x = Ghost Note (mute)

Intro/Verse

D|--------------------------------------------------------------|
A|--------------------------------------------------------------|
F|--------------------------------------------------------------|
C|--11-11---------------11~\------11-11---------------11~\------|
G|--11-11--11-11-11-11--11~\------11-11--11-11-11-11--11~\------|
C|--11-11--11-11-11-11--11~\------11-11--11-11-11-11--11~\------|
           .  .  .  .                    .  .  .  .

D|---------------------------------------------------------------|
A|---------------------------------------------------------------|
F|---------------------------------------------------------------|
C|--9-9-----------9~\-----------5h7-5-------------12-10-9-10~----|
G|--9-9--9-9-9-9--9~\-------5---------5------7-------------------|
C|--9-9--9-9-9-9--9~\---5-5---5----------7-7---7-----------------|
         . . . .        . . . .

D|--------------------------------------------------------------|
A|--------------------------------------------------------------|
F|--------------------------------------------------------------|
C|--11-11---------------11~-11-----11-11---------------11~-11---|
G|--11-11--11-11-11-11--11~-11-----11-11--11-11-11-11--11~-11---|
C|--11-11--11-11-11-11--11~-11-----11-11--11-11-11-11--11~-11---|
           .  .  .  .       .            .  .  .  .        .
                             ^keep strumming mute

D|---------------------------------------------------------------|
A|---------------------------------------------------------------|
F|---------------------------------------------------------------|
C|--9-9-----------9~-9----------5h7-5-------------12-10-9-10~----|
G|--9-9--9-9-9-9--9~-9------5---------5------7-------------------|
C|--9-9--9-9-9-9--9~-9--5-5---5----------7-7---7-----------------|
         . . . .     .  . . . .

Pre Chorus

D|---------------------------------------------------------------|
A|---------------------------------------------------------------|
F|--------------------------------14-----------------------------|
C|--7~---11~--9~----7------11------x-x8--------------------------|
G|--7~---11~--9~----7-x16--11-x8--12-----------------------------|
C|--7~---11~--9~----7------11------------------------------------|
                    .      .

Chorus

D|--------------------------------------------------------------|
A|--------------------------------------------------------------|
F|--------------------------------------------------------------|
C|--11-----7-----9-----11-7-------------------------------------|
G|--11-x8--7-x8--9-x7--11-7-x8----------------------------------|
C|--11-----7-----9-----11-7-------------------------------------|  x2

repeat Verse but don't do the riffs the second time.

play the las octave chord for the pre Chorus

repeat Chorus


Bridge

D|--------------------------------------------------------------|
A|--------------------------------------------------------------|
F|--14-xx-14-xx-14-x--12-xx-12-xx-12-x--------------------------|
C|---x-xx--x-xx--x-x---x-xx--x-xx--x-x--------------------------|
G|--12-xx-12-xx-12-x--10-xx-10-xx-10-x--------------------------|
C|--------------------------------------------------------------|  x2

D|--------------------------------------------------------------|
A|--------------------------------------------------------------|
F|--10-xx-10-xx-10-x--12-xx-12-xx-12-x--------------------------|
C|---x-xx--x-xx--x-x---x-xx--x-xx--x-x--------------------------|
G|---8-xx--8-xx--8-x--10-xx-10-xx-10-x--------------------------|
C|--------------------------------------------------------------|

D|--------------------------------------------------------------|
A|--------------------------------------------------------------|
F|--10-xx-10-xx-10-x--10-xx-10-xx-10-x--------------------------|
C|---x-xx--x-xx--x-x---x-xx--x-xx--x-x--------------------------|
G|---8-xx--8-xx--8-x---8-xx--8-xx--8-x--------------------------|
C|--------------------------------------------------------------|

                     Repeat Bridge


Sorry I haven't figured out the solo yet.

D|--------------------------------------------------------------|
A|--------------------------------------------------------------|
F|---------------------------------------------------14---------|
C|--11----7----9----11-7----11----7----9----11-7------x-x4------|
G|--11-x8-7-x8-9-x7-11-7-x8-11-x8-7-x8-9-x7-11-7-x4--12---------|
C|--11----7----9----11-7----11----7----9----11-7----------------|

D|--------------------------------------------------------------|
A|--------------------------------------------------------------|
F|---------------------------------------12-10-9----------------|
C|--11----7----9----11-7-----11----7------x--x-x--11-11-9-9-7~--|
G|--11-x8-7-x8-9-x7-11-7-x8--11-x8-7-x4--10--8-7--11-11-9-9-7~--|
C|--11----7----9----11-7-----11----7--------------11-11-9-9-7~--|

And there we go.
Related for Dancing With The Enemy tab