Song name
# A B C D E F G H I J K L M N O P Q R S T U V W X Y Z

Stills - Being Here tab

-----------------------------------------------------------------
BEING HERE - THE STILLS
-----------------------------------------------------------------
Tabbed by: Justin_brodie
Email:justin_brodie@hotmail.com

Tuning: standard

Verse 1 X4
(you can play this part with the muted notes open as well, i just prefer not to)

e|-x-x-x-x-x-x-x-x-x-x-x-x-x-x-x-x-x-x-x-x-x-x-0-0-0-0-0-0-0-0-0-0--|
B|-5-5-5-5-5-5-5-5-5-5-5-5-5-5-5-5-5-5-5-5-5-5-0-0-0-0-0-0-0-0-0-0--|
G|-6-6-6-7-7-7-6-6-6-6-6-6-6-6-6-6-7-7-7-6-6-6-1-1-1-1-1-1-1-1-1-1--|
D|-7-7-7-7-7-7-7-7-7-7-7-7-7-7-7-7-7-7-7-7-7-7-2-2-2-2-2-2-2-2-2-2--|
A|---------------------------------------------2-2-2-2-2-2-2-2-2-2--|
E|---------------------------------------------0-0-0-0-0-0-0-0-0-0--|

Chorus X2

e|-2-2-2-5-5-5-5-5-5-5-5-5-5-5-5-5-9--9--9--7-7-7-5-5-5-5-5-5-5-5-5-5-|
B|-2-2-2-5-5-5-5-5-5-5-5-5-5-5-5-5-9--9--9--7-7-7-5-5-5-5-5-5-5-5-5-5-|
G|-3-3-3-6-6-6-5-5-5-6-6-6-6-6-6-6-11-11-11-9-9-9-7-7-6-6-6-6-6-6-6-6-|
D|-4-4-4-7-7-7-7-7-7-7-7-7-7-7-7-7-11-11-11-9-9-9-7-7-7-7-7-7-7-7-7-7-|
A|-4-4-4-7-7-7-5-5-5-7-7-7-7-7-7-7-9--9--9--7-7-7-5-5-7-7-7-7-7-7-7-7-|
E|-2-2-2-5-5-5-5-5-5-5-5-5-5-5-5-5--------------------5-5-5-5-5-5-5-5-|

Guitar one does verse 1, guitar two does:

X4
e|-x-x-x-x-x-x-x-x-x-x-x-x-x-x-x-x-x-x-x-x-x-x-0-0-0-0-0-0-0-0-0-0-|
B|-2-2-2-3-3-3-2-2-2-2-2-2-2-2-2-2-3-3-3-2-2-2-0-0-0-0-0-0-0-0-0-0-|
G|-2-2-2-2-2-2-2-2-2-2-2-2-2-2-2-2-2-2-2-2-2-2-1-1-1-1-1-1-1-1-1-1-|
D|-2-2-2-2-2-2-2-2-2-2-2-2-2-2-2-2-2-2-2-2-2-2-2-2-2-2-2-2-2-2-2-2-|
A|-0-0-0-0-0-0-0-0-0-0-0-0-0-0-0-0-0-0-0-0-0-0-2-2-2-2-2-2-2-2-2-2-|
E|---------------------------------------------0-0-0-0-0-0-0-0-0-0-|

Chorus

Verse 1 (only play it twice though)

Chorus X4

and thats pretty much it, theres some background stuff i cant quite make out but this is 
heart of the song. enjoy
Tap to rate this tab
 
# A B C D E F G H I J K L M N O P Q R S T U V W X Y Z