Song name
# A B C D E F G H I J K L M N O P Q R S T U V W X Y Z

Stills - Still In Love Song tab

INTRO 
e|--7--|
B|--7--|
G|--9--| (Strum once every 4 beats,
D|--9--|  10 times)
A|--7--|
E|--7--|

e|--14-------14-------14----15-------14-------14----|
B|-----12-------12-------12----12-------12-------12-|
G|--------12-------12-------------12-------12-------|
D|--------------------------------------------------|
A|--------------------------------------------------|
E|--------------------------------------------------|

e|--12-------12-------12-------12-------12-------12-|
B|-----12-------12-------12-------12-------12-------|
G|--------12-------12----------------12-------12----| x2
D|--------------------------------------------------|
A|--------------------------------------------------|
E|--------------------------------------------------|

VERSE
e|-----------------------------------------------------------|
B|-----------------------------------------------------------|
G|------------------4---------------4-------5--------2-------| x2
D|--5-------7-------4-------2-------4-(x4)--5-(x16)--2-(x16)-|
A|--5-(x8)--7-(x8)--2-(x8)--2-(x4)--2-------3--------0-------|
E|--3-------5---------------0--------------------------------|

CHORUS
e|-------------------------|
B|-------------------------|
G|--5-------4--------------| x4
D|--5-(x4)--4-(x4)--2------|
A|--3-------2-------2-(x8)-|
E|------------------0------|

e|--12-------12-------|
B|-----12-------12----|
G|--------12----------| x3
D|--------------------|
A|--------------------|
E|--------------------|

VERSE
e|-----------------------------------------------------------|
B|-----------------------------------------------------------|
G|------------------4---------------4-------5--------2-------| x2
D|--5-------7-------4-------2-------4-(x4)--5-(x16)--2-(x16)-|
A|--5-(x8)--7-(x8)--2-(x8)--2-(x4)--2-------3--------0-------|
E|--3-------5---------------0--------------------------------|

CHORUS
e|-------------------------|
B|-------------------------|
G|--5-------4--------------| x4
D|--5-(x4)--4-(x4)--2------|
A|--3-------2-------2-(x8)-|
E|------------------0------|

CHORUS 2
e|---------------------------|
B|---------------------------|
G|-----------5-------7-------|
D|--7--------5-(x8)--7-(x16)-|
A|--7-(x16)--3-------5-------|
E|--5------------------------|

e|--14-------14-------14----15-------14-------14----|
B|-----12-------12-------12----12-------12-------12-|
G|--------12-------12-------------12-------12-------|
D|--------------------------------------------------|
A|--------------------------------------------------|
E|--------------------------------------------------|

e|--12-------12-------12-------12-------12-------12-|
B|-----12-------12-------12-------12-------12-------|
G|--------12-------12----------------12-------12----| x2
D|--------------------------------------------------|
A|--------------------------------------------------|
E|--------------------------------------------------|

Verse 2 (with delay effect)
e|---------------------------|
B|---------------------------|
G|--0--2--4----------------0-|
D|-----------2-4-5----2------|
A|---------------------------|
E|---------------------------|

CHORUS
e|-------------------------|
B|-------------------------|
G|--5-------4--------------| x4
D|--5-(x4)--4-(x4)--2------|
A|--3-------2-------2-(x8)-|
E|------------------0------|
Tap to rate this tab
 
# A B C D E F G H I J K L M N O P Q R S T U V W X Y Z