Song name
# A B C D E F G H I J K L M N O P Q R S T U V W X Y Z

Stills - In The Beginning tab

Incredible song off the stills new album Without Feathers. This is my first tab, and it 
sounds good to me, just bear with it and listen to the song.


Legend
~ let ring
/ slide
h hammer-on
b bend

INTRO (same as chorus)
Guitar 1 repeats this until about 0:56
e-|------------------------------|
B-|------------------------------|
G-|------------------------------|
D-|--------------555-----555-----|
A-|5-555-555-555-333-555-333-555-|
E-|3-333-333-333-----333-----333-|

Guitar 2 plays an open G chord and then C chord over top of this and then that special 
at about 0:40
e-|-----------------------------|
B-|----------------8-----8------|
G-|-------7~----7h9--7-7h9-7----|
D-|---7-9-----------------------|
A-|-10--------------------------|
E-|-----------------------------|

e-|-----------------------------|
B-|-----------------------------|
G-|-------7~----7--9--7--7------|
D-|---7-9--------10--9--7-------|
A-|-10---------------------10---|
E-|-----------------------------|

Guitar 1 plays this during that riff:
e-|------------------------------|
B-|------------------------------|
G-|------------------------------|
D-|--------------555-----555-----|
A-|5-555-555-555-333-555-333-555-|
E-|3-333-333-333-----333-----333-|

e-|-------------------------------|
B-|-------------------------------|
G-|--------------5--4--2----------|
D-|--------------5--4--2--5-------|
A-|5-555-555-555-3--2--0--5-------|
E-|3-333-333-333----------3-------|

Verse
G                            C Bm Am Bm
This story ends in bloodshed

G                                  C Bm Am Bm
The face I love, The city I'm from

G                                               C Bm Am Bm
The persons I've met, The persons I've let down
G                              C Bm Am Bm
But a hero never turns, around


Pre-chorus (use correct picking rhythm)
C                                 G C G
It's nice to see you're moving on

C                            G C G
I know it's hard to carry on

C                           G C G
It's just never what it was

C  Bm   D
In the Beginning

e-|-----------------------------------|
B-|---0--0----------------------------|
G-|-5--4---4--4--4--4--4--4--7--7-----|
D-|-------5--5--4--4--4--4--7--7------|
A-|-----------------------------------|
E-|-----------------------------------|

In the Beginning.....

(Then back to that riff)
This time through that riff you will hear:
e-|-----------------------|
B-|-10~-------------------|
G-|-12~-------------------|
D-|-----------------------|
A-|-----------------------|
E-|-----------------------|


Chorus is the same except with guitar 2 play this:
e-|--------10--------10------------|
B-|---10h12--10-10h12---12---------|
G-|-12--------------------12b~-----|
D-|--------------------------------|
A-|--------------------------------|
E-|--------------------------------|

In a ball of fire and, stars and sun

e-|-----------------------|
B-|-10-1010-1010-10/12----|
G-|-12-1212-1212----------|
D-|-----------------------|
A-|-----------------------|
E-|-----------------------|

That brings me here now, and my heart's caving in

Pre-chorus and then

Bridge(actually not on guitar, but these are the chords)

Em D C Bm Am G Am G

Then all other instruments come into the song again, and bass and/or guitar does this:
e-|----------------------------------|
B-|----------------------------------|
G-|----------------------------------|
D-|-2--------------------------------|
A-|--5-3-2---------------------------|
E-|-------2--------------------------|

e-|----------------------------------|
B-|----------------------------------|
G-|----------------------------------|
D-|----------------------------------|
A-|-3-2---2--------------------------|
E-|-----5---3------------------------|

Another guitar eventually plays open G and C chords along with this bass/guitar line

End on G

Thanks....RBSP
Tap to rate this tab
 
# A B C D E F G H I J K L M N O P Q R S T U V W X Y Z