Song name
# A B C D E F G H I J K L M N O P Q R S T U V W X Y Z

Stillwater - You Had To Be There tab

|---5--7----------7--5------0-----0---------|        when ur at the last of
|---------5--7--5--------7-----7-----7------|        this riff let the sound
|------------------------9-----9-----9------|  (4x)  continue
|------------------------9-----9-----9------|
|-------------------------------------------|
|-------------------------------------------|

|---5--7----------7--5------0-----0---------|
|---------5--7--5--------7-----7-----7>>>>>>|
|------------------------9-----9-----9>>>>>>|  (2x)
|------------------------9-----9-----9>>>>>>|
|-------------------------------------------|
|-------------------------------------------|

|------7------------------------------------|
|--7---9---5-----5-5-5----------------------|
|--9---9---7-----7-7-7----------------------|
|--9-------7-----7-7-7----------------------|   (3x)
|-------------------------------------------|
|-------------------------------------------|

|--0----3----5----7--7-7-7-7----------------|
|--2----5----7----9--9-9-9-9----------------|
|-------5----7----9--9-9-9-9----------------|
|-------------------------------------------|  (2x)
|-------------------------------------------|
|-------------------------------------------|

|---5--7----------7--5------0-----0---------|
|---------5--7--5--------7-----7-----7------|
|------------------------9-----9-----9------|
|------------------------9-----9-----9------|
|-------------------------------------------|
|-------------------------------------------|

|---5--7----------7--5--|
|---------5--7--5-------|
|-----------------------|
|-----------------------|
|-----------------------|
|-----------------------|

|---5--7----------7--5------0-----0---------|
|---------5--7--5--------7-----7-----7------|
|------------------------9-----9-----9------|  (2x)
|------------------------9-----9-----9------|
|-------------------------------------------|
|-------------------------------------------|

|------7------------------------------------|
|--7---9---5-----5-5-5----------------------|
|--9---9---7-----7-7-7----------------------|
|--9-------7-----7-7-7----------------------|   (3x)
|-------------------------------------------|
|-------------------------------------------|

|--0----3----5----7--7-7-7-7----------------|
|--2----5----7----9--9-9-9-9----------------|
|-------5----7----9--9-9-9-9----------------|
|-------------------------------------------|  (2x)
|-------------------------------------------|
|-------------------------------------------|

|--------------------7---5-5-5-5-5-5-----------------7-----|
|---7-7-7-7-7----5---------------------7-7-7-7-7--5-----5--|
|-------------------------------------------------------7--|
|-------------------------------------------------------7--|
|----------------------------------------------------------|
|----------------------------------------------------------|

here it starts the first solo i haven't got the solo right but later i will have it... 
for meen while play that while the solo starts..

|---0>>>>>>>|
|---2>>>>>>>|
|-----------|
|-----------|
|-----------|
|-----------|

|-------------------------------------------------------|
|-------------------------------------------------------|
|-------------------------------------------------------|
|---9-9-9-9-9-9---7-7-7-7-7-7--6-6-6-6-6-6--7-7-7-7-7-7-|  (4x)
|-------------------------------------------------------|
|-------------------------------------------------------|

here the second solo starts and i still dont have the solo but later i willbut u can 
this instead of the solo...

|--------------------7---5-5-5-5-5-5-----------------7-----|
|---7-7-7-7-7----5---------------------7-7-7-7-7--5-----5--|
|-------------------------------------------------------7--|
|-------------------------------------------------------7--|
|----------------------------------------------------------|
|----------------------------------------------------------|
Tap to rate this tab
# A B C D E F G H I J K L M N O P Q R S T U V W X Y Z