Guitaretab - guitar tabs
Song name
# A B C D E F G H I J K L M N O P Q R S T U V W X Y Z

Sting - Moon Over Bourbon Street tab

t. See http://www.olga.net/faq/ for more information.                     #
#-----------------------------------------------------------------------------#

Date: Sat, 29 Apr 2000 17:13:57 -0400
From: Gehan Cheung 
Subject: s/sting/moon_over_bourbon_street.tab

Sting
Moon Over Bourbon Street (3:59)
The dream of the blue turtles (1985, A&M)

Thanks to Derek Barlas for transcribing this beautiful song earlier.
I brought it all up a half-step so to be able to play along 
with the CD, tabbed the chords and the pipe/synth parts.
Your comments and revisions are welcomed. 
Have fun, Gehan Cheung

   ?  C7 Fm C# Ddim7 G7 C/G 
e  6  3  1  4  X     3  3   
B  6  5  1  6  6     3  5
G  6  3  1  6  4     4  5 
D  5  5  3  6  6     3  5
A  X  3  3  4  5     5  3
E  3  X  1  X  X     3  3

VERSE:
  |           ?                 C7                Fm
1. There's a  moon 		Bourbon Street    tonight
2. It was     many years       ago         that I  became what I am
3. She        walks    every   day through the     streets of New Orleans

repeat 2nd and 3rd lines

              Ddim7              G7               C#               C7
4th line (of each verse)

              ?                  C7               Fm
5th and 6th

CHORUS:
             C#                 C/G               Fm  
   Oh you'll never   see   my   shade or hear the sound of my feet while

             C#                 C7                Fm
   there's a moon    over       Bourbon           Street
        
        
   1.  e-13-13(13)-16-16p15-|-13-13-----------| 2x, then to VERSE 2.
       B--------------------|--------14-14p13-|
       G--------------------|-----------------|
       D--------------------|-----------------|
       A--------------------|-----------------|
       E--------------------|-----------------|   
       
      
   2.  e-13-13(13)-16-16p15-|-13-13-----------| 2x 
       B--------------------|--------14-14p13-|    
       G--------------------|-----------------|    
       D--------------------|-----------------| 
       A--------------------|-----------------|
       E--------------------|-----------------|
       
       guitar 1:
         e-----------------------|-----------------------------|
         B-----------------------|-----------------------------|
         G-13-12-10-12-(12)-13---|--13-12-10-12-(12)-(12)-(12)-|
         D-----------------------|-----------------------------|
         A-----------------------|-----------------------------|
         E-----------------------|-----------------------------|
         
       guitar 2:
         e--------------16--15-13|----13---------13---11---10--|
         B-----------------------|12---------------------------|
         G-----------------------|-----------------------------|
         D-----------------------|-----------------------------|
         A-----------------------|-----------------------------|                               
         E-----------------------|-----------------------------|
         
       guitar 1:
         e----------------------------------|
         B-----13p11---11----9-11--9--------|
         G-(12)------13--12-----------------| 
         D----------------------------------|
         A----------------------------------|
         E----------------------------------|
         
       guitar 2:
         e--11---------------------16-15-13-|
         B----------------------------------|
         G----------------------------------|                                                  
         D----------------------------------|
         A----------------------------------|
         E----------------------------------|
         
       guitar 1:
         e-----------------------------------------|
         B-(9)-------------------------------------|
         G-----12-13-12-(12)----10-12-10-(10)-(10)-|
         D-----------------------------------------|
         A-----------------------------------------|
         E-----------------------------------------|
         
       guitar 2:
         e-----------18-16-15-13-------15p13p12h13-|
         B-----------------------------------------|
         G-----------------------------------------|
         D-----------------------------------------|
         A-----------------------------------------|
         E-----------------------------------------|
         
       guitar 1:
         e---------------------------------|to VERSE 3.
         B---13p12-13----------9p8-9-7(7)8-|
         G-----------15p14-15--------------|
         D---------------------------------|
         A---------------------------------|
         E---------------------------------|
         
   3.    e-16-16p15--13-13p12-|     Fm     |
         B--------------------|            |
         G--------------------|            |
         D--------------------|            |
         A--------------------|            |
         E--------------------|            |
[ Tab from: http://www.guitaretab.com/s/sting/18446.html ]
Related for Moon Over Bourbon Street tab
×
Moon Over Bourbon Street