Song name
# A B C D E F G H I J K L M N O P Q R S T U V W X Y Z

Sting - Saint Agnes tab

Sting - Saint Agnes and the burning train (Soul Cages).

Standard tuning (E B G D A E).

          Em                Am                D                  C     B  
E--7-8-7--7-8-7--7-8-7--5-7-8-7-5-7-5--5-7-5--5-7-5--5-7-5---0-2-3--3-2------
B----------------------------------------------------------0-----------------
 
   B   Em     D      C       B     B   Em     D      C      B     C B       
E--2---1-2-3--2-3-5--3-2-0----0-2--2---1-2-3--2-3-5--3-2-0----0-2------------
B---------------------------4-------------------------------4----------------

          Em                Am                D                   C     B
E--7-8-7--7-8-7--7-8-7--5-7-8-7-5-7-5--5-7-5--5-7-5--5-7-5----0-2-3--3-2-----
B-----------------------------------------------------------0----------------

          Em                Am                D                   C     B
E--7-8-7--7-8-7--7-8-7--5-7-8-7-5-7-5--5-7-5--5-7-5--5-7-5----0-2-3--3-2-----
B-----------------------------------------------------------0----------------

          B  Em     D     C      B      B  Em     D    C       B         
E--6/7-7--2--1-2-3--2-3-5-3-2-0----0-2--2--1-2-3--2-3-5-3-2-0----0-2---------
B--------------------------------4-----------------------------4-------------


   C B  C B  C B   B Em     ?-I don't what's here (sorry).   ?                 
E----------------------------------------------------------------------------
B---------------------------4/5-5-5-3-5-1-0----------------------------------
G--5-4--5-4--5-4---4-0-------------------------0-2-4-7-5-4-------------------
D----------------------2-2-------------------4-------------------------------
A----------------------------------------------------------------------------
E----------------------------------------------------------------------------

          Em                Am                D                  C       B
E--7-8-7--7-8-7--7-8-7--5-7-8-7-5-7-5--5-7-5--5-7-5--5-7-5---0-2-3--3-2-0----
B----------------------------------------------------------0-----------------
                       
                        Ends with Em
E--3-2-0--3-2-0--3-2-0-------------------------------------------------------
B-----------------------0--5--4--0-------------------------------------------

This is not how it exactly goes, 'cause Sting plays there a lot more bridges
and stuff. But BASICALLY it goes like that. Any improvements are welcome on
address polony@bb.sanet.sk.
I think that chords are OK (it sounds good to me...). Try to play chords as 
I have written then, it sounds better.

Chords :

  Em Am D C B
E-X--X--X-3-2
B-X--X--7-5-4
G-X--X--7-5-4
D-2--7--7-5-4
A-2--7--5-3-2
E-0--5--5-3-2

Vlado Polony (polony@bb.sanet.sk)
Tap to rate this tab
# A B C D E F G H I J K L M N O P Q R S T U V W X Y Z