Song name
# A B C D E F G H I J K L M N O P Q R S T U V W X Y Z

Sting - Shape Of My Heart tab

#----------------------------------PLEASE NOTE---------------------------------#
#This file is the author's own work and represents his interpretation of the   #
#song. You may only use this file for private study, scholarship, or research. #
#------------------------------------------------------------------------------#

GUITAR TAB for "Shape Of My Heart"(Sting-Ten Summoner's Tales)
          Tabbed by Mario Carlo Pittalis (mariocarlo2000@hotmail.com)



Intro

E|-5-----5-|-4-----4-|-2-----2-|-2----1---|
B|-----2---|-----2---|-----0---|---0----0-|
G|---------|---------|---------|----------|
D|---4-----|---2-----|---0-----|----------|
A|---------|---------|-2-------|-4----4---|
E|-2-------|-0-------|---------|----------|

E|-5-----5-|-4-----4-|-2-----2-|-2----1---|
B|-----3---|-----2---|-----0---|---0----0-|
G|---------|---------|---------|----------|
D|---4-----|---2-----|---0-----|----------|
A|---------|---------|-2-------|-4----4---|
E|-2-------|-0-------|---------|----------|

E|-----2---5-2---|-----5-|-------|-2-0---|-------|-2-----|
B|---------------|-----2-|-----6-|-3---3-|-2-----|-2-----|
G|---4---4-----4-|-2h4-2-|-------|-------|---4-2-|-2-----|
D|-0-------------|-2-----|---6---|-0-----|-------|-4-----|
A|4*-------------|-0-----|-4-----|-------|-4-----|-4-----|
E|---------------|-------|-------|-------|-------|-2-----|



Part I (Repeat x 5)

E|-5-----5-|-4-----4-|-2-----2-|-2----1---|
B|-----2---|-----2---|-----0---|---0----0-|
G|---------|---------|---------|----------|
D|---4-----|---2-----|---0-----|----------|
A|---------|---------|-2-------|-4----4---|
E|-2-------|-0-------|---------|----------|

E|-5-----5-|-4-----4-|-2-----2-|-2----1---|
B|-----3---|-----2---|-----0---|---0----0-|
G|---------|---------|---------|----------|
D|---4-----|---2-----|---0-----|----------|
A|---------|---------|-2-------|-4----4---|
E|-2-------|-0-------|---------|----------|

E|-----2---5-2---|-----5-|-------|-2-2---|-2-----|-2-----|
B|---------------|-----2-|-----6-|-3-3---|-2-----|-2-----|
G|---4---4-----4-|-2h4-2-|-------|-------|-4-----|-2-----|
D|-0-------------|-2-----|---6---|-0-----|-2-----|-4-----|
A|4*-------------|-0-----|-4-----|-------|-4-----|-4-----|
E|---------------|-------|-------|-------|-------|-2-----|

On the 5th, the sequence from the last bar (repeated down here) is:

E|-2--2--2--2--2-2-2--2--2--2--2--2--2--2--2-|
B|-2--2--2--2--3-3-3--2--2--2--2--2--2--2--2-|
G|-2--2--2--2--2-2-2--4--4--4--4--4--4--4--4-|
D|-4--4--2--2--0-0-0--2--2--2--2--2--2--2--2-|
A|-4--4-(4)(4)-x-x-x--4--4--4--4--4--4--4--4-|
E|-2--2-(2)(2)-x-x-x--2--2--2--2--2--2--2--2-|



Part II

E|---------|---------|---------|---------|
B|-5-----5-|-4-----4-|-2-----2-|---------|
G|---------|---------|---------|-6---5---|
D|-----6---|-----6---|-----4---|-4-------|
A|-4-4-----|-2-2-----|-0-0-----|---------|
E|---------|---------|---------|-4-4---4-|

E|---------|---------|---------|---------|
B|-5-----5-|-4-----4-|-2-----2-|---------|
G|---------|---------|---------|-6---5---|
D|-----7---|-----6---|-----4---|-4-------|
A|-4-4-----|-2-2-----|-0-0-----|---------|
E|---------|---------|---------|-4-4-----|

E|---------------|-------|-------|-------|-4-----|
B|---------5-----|-------|-------|-------|-4-----|
G|-----6-----6---|-----1-|-----5-|-6-6---|-6-----|
D|---4---4-----4-|-----2-|-------|-7-7---|-4-----|
A|---------------|---2---|---6---|-------|-6-----|
E|4-5------------|-0-----|-4-----|-5-----|-4-----|

E|-4--4--4--4--5-5-5--4--4--0-------------|
B|-5--5--5--5--5-5-5--4--4--0-------------|
G|-6--6--4--4--6-6-6--6--6--6-------------|
D|-6--6--6--6--7-7-7--4--4--7-------------|
A|-4--4--4--4--7-7-7--6--6--7-------------|
E|-4--4--4--4--5-5-5--4--4--5-------------|



Repeat Part I (Repeat x 3)

E|-5-----5-|-4-----4-|-2-----2-|-2----1---|
B|-----2---|-----2---|-----0---|---0----0-|
G|---------|---------|---------|----------|
D|---4-----|---2-----|---0-----|----------|
A|---------|---------|-2-------|-4----4---|
E|-2-------|-0-------|---------|----------|

E|-5-----5-|-4-----4-|-2-----2-|-2----1---|
B|-----3---|-----2---|-----0---|---0----0-|
G|---------|---------|---------|----------|
D|---4-----|---2-----|---0-----|----------|
A|---------|---------|-2-------|-4----4---|
E|-2-------|-0-------|---------|----------|

E|-----2---5-2---|-----5-|-------|-2-2---|-2-----|-2-----|
B|---------------|-----2-|-----6-|-3-3---|-2-----|-2-----|
G|---4---4-----4-|-2h4-2-|-------|-------|-4-----|-2-----|
D|-0-------------|-2-----|---6---|-0-----|-2-----|-4-----|
A|4*-------------|-0-----|-4-----|-------|-4-----|-4-----|
E|---------------|-------|-------|-------|-------|-2-----|

On the 3th, the sequence from the last bar (repeated down here) is:

E|-2--2--2--2--2-2-2--2--2-|
B|-2--2--2--2--3-3-3--2--2-|
G|-2--2--2--2--2-2-2--4--4-|
D|-4--4--2--2--0-0-0--2--2-|
A|-4--4-(4)(4)-x-x-x--4--4-|
E|-2--2-(2)(2)-x-x-x--2--2-|

E|-2--2--2--2--2-2-2--2--2--2--2--2--2--2--2-|
B|-2--2--2--2--3-3-3--2--2--2--2--2--2--2--2-|
G|-2--2--2--2--2-2-2--4--4--4--4--4--4--4--4-|
D|-4--4--2--2--0-0-0--2--2--2--2--2--2--2--2-|
A|-4--4-(4)(4)-x-x-x--4--4--4--4--4--4--4--4-|
E|-2--2-(2)(2)-x-x-x--2--2--2--2--2--2--2--2-|



Final Part

E|-5-----5-|-4-----4-|-2-----2-|-2----1---|
B|-----2---|-----2---|-----0---|---0----0-|
G|---------|---------|---------|----------|
D|---4-----|---2-----|---0-----|----------|
A|---------|---------|-2-------|-4----4---|
E|-2-------|-0-------|---------|----------|

E|-5-----5-|-4-----4-|-2-----2-|-2----1---|
B|-----3---|-----2---|-----0---|---0----0-|
G|---------|---------|---------|----------|
D|---4-----|---2-----|---0-----|----------|
A|---------|---------|-2-------|-4----4---|
E|-2-------|-0-------|---------|----------|

E|-2-----------------------------------------|
B|-2-----------------------------------------|
G|-2-----------------------------------------|
D|-4-----------------------------------------|
A|-4-----------------------------------------|
E|-2-----------------------------------------|



4*: play the note and remove your finger immediatly.
Don't make it sound together with the subsequent note.


Intro from "Leon" version (end titles of the famous movie by Luc Besson).

/ = slide

E|---------|---------|---------|---------|
B|-5-------|-7/4-----|-2-----2-|---------|
G|---------|-------1-|---------|-6---5---|
D|-6---6---|---------|-4---4---|-4-------|
A|-4-4-----|-----2---|-0-0-----|---------|
E|---------|---------|---------|-4-------|

E|---------|---------|---------|---------|
B|-5-------|-7/4-----|-2-------|---------|
G|---------|-------1-|---------|-6---5---|
D|-6---7---|---------|-4-------|-4-------|
A|-4-4-----|-----2---|-0-------|---------|
E|---------|---------|---------|-4-------|

E|---------------|-------|-------|-------|-4-----|
B|---------5-----|-------|-------|-------|-4-----|
G|-----6-----6---|-----1-|-----5-|-6-6---|-6-----|
D|---4---4-----4-|-----2-|-------|-7-7---|-4-----|
A|---------------|---2---|---6---|-------|-6-----|
E|4-5------------|-0-----|-4-----|-5-----|-4-----|

E|-4--4--4--4--5-5-5--4--4-|
B|-5--5--5--5--5-5-5--4--4-|
G|-6--6--4--4--6-6-6--6--6-|
D|-6--6--6--6--7-7-7--4--4-|
A|-4--4--4--4--7-7-7--6--6-|
E|-4--4--4--4--5-5-5--4--4-|

E|-4--4--4--4--5-5-5--4--4-|
B|-5--5--5--5--5-5-5--4--4-|
G|-6--6--4--4--6-6-6--6--6-|
D|-6--6--6--6--7-7-7--4--4-|
A|-4--4--4--4--7-7-7--6--6-|
E|-4--4--4--4--5-5-5--4--4-|

E|-4--4--4--4--5-5-5--4--4-|
B|-5--5--5--5--5-5-5--4--4-|
G|-6--6--4--4--6-6-6--6--6-|
D|-6--6--6--6--7-7-7--4--4-|
A|-4--4--4--4--7-7-7--6--6-|
E|-4--4--4--4--5-5-5--4--4-|

E|-0-------0---0---0---0---0---0---0---0-----|
B|-0--------0---0---0---0---0---0---0--------|
G|-6---(6)---6---6---6---6---6---6---6-------|
D|-7-----------------------------------------|
A|-7-----------------------------------------|
E|-5-----------------------------------------|
Tap to rate this tab
 
# A B C D E F G H I J K L M N O P Q R S T U V W X Y Z