Song name
# A B C D E F G H I J K L M N O P Q R S T U V W X Y Z

Sting - Shape Of My Heart tab

Thats the tune tht plays through the whole song.
I dont have the tab for the solo or the interlude,
but you can play the song with this tab,
its correct...

STING - SHAPE OF MY HEART

CAPO ON THE 2ND FRET!!!
Em 			D6 		A5 			B7sus4 B7
||--3---------3-----|-2---------2-----|-----------------|-----------------|
||----------0-------|---------0-------|-5---------5-----|-5-------4-------|
||------------------|-----------------|---------2-------|-----2-------2---|
||--2-----2---------|-0-----0---------|-----------------|-----------------|
||------------------|-----------------|-0-----0---------|-2-------2-------|
||------------------|-----------------|-----------------|-----------------|
C/E		 D6 			A5			 B7sus4	B7
||--3---------3-----|-2---------2-----|-----------------|-----------------|
||----------1-------|---------0-------|-5---------5-----|-5-------4-------|
||------------------|-----------------|---------2-------|-----2-------2---|
||--2-----2---------|-0-----0---------|-----------------|-----------------|
||------------------|-----------------|-0-----0---------|-2-------2-------|
||------------------|-----------------|-----------------|-----------------|
C			 C 		Gsus4  G	 	B7
|--------0----------|-3---0-----------|------------------|-----------------|
|------------1------|---------1-------|------------------|---------4-------|
|--------0-------0--|-----0-----------|------------------|-----2-----------|
|-------------------|-----------------|------------------|-----4-----------|
|-/3----------------|---------3-------|--0h2-----2-------|-2-------2-------|
|-------------------|-----------------|--3-------3-------|-----------------|
C 		Am 			 Em 				Em
|-0---------------|-0---------------|-0----------------|-----------------||
|-1---------------|-1---------------|-0----------------|-----------------||
|-0---------------|-2---------------|-0----------------|-----------------||
|-----2-----------|-2---------------|-2----------------|-----------------||
|-3-------3-------|-0---------------|-2----------------|-----------------||
|-----------------|-----------------|-0----------------|-----------------||

LYRICS:

VERSE 1:
He deals the cards as a meditation
And those he plays never suspect
He doesn't play for the money he wins
He doesn't play for respect

VERSE 2:
He deals the cards to find the answer
The sacred geometry of chance
The hidden law of a probable outcome
The numbers lead a dance

CHORUS:
I know that the spades are swords of a soldier
I know that the clubs are weapons of war
I know that diamonds mean money for this art
But that's not the shape of my heart

VERSE 3:
he may play the jack of diamonds
he may lay the queen of spades
he may conceal a king in his hand
while the memory of it fades

-CHORUS-

VERSE 4:
and if i told you that i loved you
you'd maybe think there's something wrong
i'm not a man of too many faces
the mask i wear is one

-CHORUS-

VERSE 5:
those who speak know nothing
and find out to their cost
like those who curse their luck in too many places
and those who fear are lost
Tap to rate this tab
 
# A B C D E F G H I J K L M N O P Q R S T U V W X Y Z