Sting - Every Breath You Take tab

----------------------------------------------------------------------------
                        Sting - Every Breath you Take
----------------------------------------------------------------------------


    Gadd9            G
|--------------------------------------|
|--------------------0-----------------|
|-----------2-------------2-------2----|
|-------0-------0-------------0--------| X2
|--------------------------------------|
|---3----------------------------------|

    Emadd9
|--------------------------------------|
|--------------------------------------|
|--------------------0-----------------|
|-----------4-------------4-------2----|X2
|-------2-------2-------------2--------|
|---0----------------------------------|

  Csus9            C                    Dadd9             D
|------------------------------------||---------0--------------------------|
|---------3--------1-----------------||-------------------3----------------|
|-----0-------0--------0-------0-----||-----2--------2--------2--------2---|
|------------------------------------||-0--------------------------0-------|
|-3------------------------3---------||------------------------------------|
|------------------------------------||------------------------------------|

   Emadd9
|--------------------------------------|
|--------------------------------------|
|--------------------0-----------------|
|-----------4-------------4-------2----|
|-------2-------2-------------2--------|
|---0----------------------------------|

   Emadd9                             \\
|--------------------------------------||
|--------------------------------------||
|--------------------0----------------.|| (back to
|-----------4-------------4-------2---.|| beginning)
|-------2-------2-------------2--------||
|---0----------------------------------||
                                      //




  Gadd9            G
|--------------------------------------|
|--------------------0-----------------|
|-----------2-------------2-------2----|
|-------0-------0-------------0--------| X2
|--------------------------------------|
|---3----------------------------------|

  Cadd9            C                    Cadd9
|------------------------------------||------------------------------------|
|---------3--------1-----------------||---------3--------------------------|
|-----0-------0--------0-------0-----||-----0-------0---3---0---------0----|
|------------------------------------||------------------------------------|
|-3------------------------3---------||-3------------------------5---------|
|------------------------------------||------------------------------------|

    Gadd9            G
|--------------------------------------|
|--------------------0-----------------|
|-----------2-------------2-------2----|
|-------0-------0-------------0--------| X2
|--------------------------------------|
|---3----------------------------------|

   Aadd9
|--------------------------------------|
|-------------------2------------------|
|----------4-------------4-------4-----|
|------2-------2-------------2---------| X2
|--0-----------------------------------|
|--------------------------------------|

  Dadd9             D
|---------0--------------------------|
|-------------------3----------------|
|-----2--------2--------2--------2---|
|-0--------------------------0-------| X2
|------------------------------------|
|------------------------------------|
Tap to rate this tab
 
# A B C D E F G H I J K L M N O P Q R S T U V W X Y Z