Song name
# A B C D E F G H I J K L M N O P Q R S T U V W X Y Z

Sting - Shape Of My Heart tab

Capo 2nd Fret

Chords Shapes

EM - 002003
D6 - xx0202
cmaj7 - x32000
B7sus4 - x24252
B7 - x24242
Am7 - x02013


Part 1

  Em
e--3-------------3----------------------|
B----------0---------0------------------|
G------0----------------0---------------|
D--2------------------------------------|
A---------------------------------------|
E---------------------------------------|

  D6
e--2-------------2----------------------|
B----------0---------0------------------|
G------2----------------0---------------|
D--0------------------------------------|
A---------------------------------------|
E---------------------------------------|

  Cmaj7
e--0-------------0----------------------|
B----------0---------0------------------|
G------0----------------0---------------|
D---------------------------------------|
A--3------------------------------------|
E---------------------------------------|

  B7sus4             B7
e---------------------------------------|
B--5-----------------4------------------|
G--2-----------------2------------------|
D------4-----------------4--------------|
A--2-----------------2------------------|
E---------------------------------------|


Part 2

  Am7
e--3-------------3----------------------|
B----------1---------1------------------|
G------0----------------0---------------|
D---------------------------------------|
A--0------------------------------------|
E---------------------------------------|

  D6
e--2-------------2----------------------|
B----------0---------0------------------|
G------2----------------0---------------|
D--0------------------------------------|
A---------------------------------------|
E---------------------------------------|

  Cmaj7
e--0-------------0----------------------|
B----------0---------0------------------|
G------0----------------0---------------|
D---------------------------------------|
A--3------------------------------------|
E---------------------------------------|

  B7sus4             B7
e---------------------------------------|
B--5-----------------4------------------|
G--2-----------------2------------------|
D------4-----------------4--------------|
A--2-----------------2------------------|
E---------------------------------------|
Tap to rate this tab
# A B C D E F G H I J K L M N O P Q R S T U V W X Y Z