Song name
# A B C D E F G H I J K L M N O P Q R S T U V W X Y Z

Sting - Seven Days tab

-----------------------------------------------------------------------------------------------
Artist - Sting
Song   - Seven Days
Album  - Ten Summoner's Tales
Tab by - Jakob Jugovic
-----------------------------------------------------------------------------------------------

Enjoy, here is the full guitar tab
of this beautyful song!
I added lyrics too :)
Please rate if you appreciate,
thank you. Jakob


h - hammer on
# - 1/4 (tempo)
' - 1/8 (tempo)

Tuning and tempo signs(5/8):


   1   2   3   4   5
   |   |   |   |   |
   #   '   '   '   '

e|--------------------|
B|--------------------|
G|--------------------|
D|--------------------|
A|--------------------|
E|--------------------|





INTRO (palm mute)



  #   '   '   '   '   #   '   '   '   '   #   '   '   '   '   #   '   '   '   '
|-------3-------------------3-------------------3-------------------7-------------|
|-------3-------------------3-------------------3-------------------5-------------|
|-------0-------------------0-------------------0-------------------5-------------|
|-------0-------------------0-------------------0---------------------------------|
|-3-------------------3-------------------3-------------------3-------------------|
|---------------------------------------------------------------------------------|



  #   '   '   '   '   #   '   '   '   '   #   '   '   '   '   #   '   '   '   '
|-------7-------------------3-------------------3-------------------3-------------|
|-------7-------------------3-------------------3-------------------3-------------|
|-------5-------------------0-------------------0-------------------0-------------|
|---------------------------0-------------------0-------------------0-------------|
|-3-------------------3-------------------3-------------------3-------------------|
|---------------------------------------------------------------------------------|





VERSE 1 (palm mute, release in the end)



  Seven days, was all she wrote           A kind of ultimatum note,

  #   '   '   '   '   #   '   '   '   '   #   '   '   '   '   #   '   '   '   '
|-------3-------------------3-----------------------------------------------------|
|-------3-------------------3-------------------10------------------6-------------|
|-------0-------------------0-------------------8-------------------8-------------|
|-------0-------------------0-------------------8-------------------8-------------|
|-3-------------------3-------------------6---------------------------------------|
|-------------------------------------------------------------6-------------------|


  She gave to me                     She gave to me

  #   '   '   '   '   #   '   '   '   '   #   '   '   '   '   #   '   '   '   '
|-------7---------------------------------------5-------------------3-------------|
|---------------------------3---------------------------------------1-------------|
|-------4-------------------4-------------------2-------------------2-------------|
|-------5-------------------5-------------------3---------------------------------|
|---------------------------------------------------------------------------------|
|-3-------------------3-------------------1-------------------1-------------------|


  When I thought the field had cleared    It seems another suit appeared

  #   '   '   '   '   #   '   '   '   '   #   '   '   '   '   #   '   '   '   '
|-------3-------------------3-----------------------------------------------------|
|-------3-------------------3-------------------10------------------6-------------|
|-------0-------------------0-------------------8-------------------8-------------|
|-------0-------------------0-------------------8-------------------8-------------|
|-3-------------------3-------------------6---------------------------------------|
|-------------------------------------------------------------6-------------------|


  to challenge me                         Woe is me

  #   '   '   '   '   #   '   '   '   '   #   '   '   '   '   #   '   '   '   '
|-------7-------------------------------------------------------------------------|
|---------------------------3-------------------8-------------------8-------------|
|-------4-------------------4-------------------8-------------------8-------------|
|-------5-------------------5-------------------8-------------------8-------------|
|---------------------------------------------------------------------------------|
|-3-------------------3-------------------0-------------------0-------------------|


  Though I hate to make a choice          My options are decreasing

  #   '   '   '   '   #   '   '   '   '   #   '   '   '   '   #   '   '   '   '
|-------3-------------------3-----------------------------------------------------|
|-------3-------------------3-------------------10------------------6-------------|
|-------0-------------------0-------------------8-------------------8-------------|
|-------0-------------------0-------------------8-------------------8-------------|
|-3-------------------3-------------------6---------------------------------------|
|-------------------------------------------------------------6-------------------|


  mostly rapidly                          Well, we'll see

  #   '   '   '   '   #   '   '   '   '   #   '   '   '   '   #   '   '   '   '
|-------7---------------------------------------5-------------------3-------------|
|---------------------------3---------------------------------------1-------------|
|-------4-------------------4-------------------2-------------------2-------------|
|-------5-------------------5-------------------3---------------------------------|
|---------------------------------------------------------------------------------|
|-3-------------------3-------------------1-------------------1-------------------|


  I don't think she'd bluff this time     I really have to make her mine

  #   '   '   '   '   #   '   '   '   '   #   '   '   '   '   #   '   '   '   '
|-------3-------------------3-----------------------------------------------------|
|-------3-------------------3-------------------10------------------6-------------|
|-------0-------------------0-------------------8-------------------8-------------|
|-------0-------------------0-------------------8-------------------8-------------|
|-3-------------------3-------------------6---------------------------------------|
|-------------------------------------------------------------6-------------------|


It's plain to see,                       it's him or me

  #   '   '   '   '   #   '   '   '   '   #   '   '   '   '   #   '   '   '   '
|-------7-------------------------------------------------------------------------|
|---------------------------3-------------------8-------------------8-------------|
|-------4-------------------4-------------------8-------------------8-------------|
|-------5-------------------5-------------------8-------------------8-------------|
|---------------------------------------------------------------------------------|
|-3-------------------3-------------------0-------------------0-------------------|





CHORUS 1



  Monday,             I could wait till   Tuesday          If I make up my

  #   '   '   '   '   #   '   '   '   '   #   '   '   '   '   #   '   '   '   '
|-------------------------------------------------------------------------0-------|
|-------------1-------------------1-------------------3-----------------------0---|
|-----------------2-------------------2-------------------0-----------------------|
|-------3-------------------2-----------------------------------------------------|
|-----------------------------------------------2-------------------2-------------|
|-1-------------------0-------------------3-------------------4-------------------|


  mind                Wedn'sday would be fine                 Thursday's on my

  #   '   '   '   '   #   '   '   '   '   #   '   '   '   '   #   '   '   '   '
|-------------0---------------------------------------3-------------------0-------|
|-----------------1---------------1-----------------------3-------------------3---|
|-------2-----------------------------2---------4---------------------------------|
|---------------------------3-----------------------------------------------------|
|-0-----------------------------------------------------------------2-------------|
|---------------------1-------------------3-------------------4-------------------|


  mind                Friday'd give me    time                Saturday

  #   '   '   '   '   #   '   '   '   '   #   '   '   '   '   #   '   '   '   '
|-------------0-------------------0-------------------0-------------------0-------|
|-----------------1-------------------1-------------------1-------------------1---|
|-------2-------------------3-------------------2-------------------3-------------|
|---------------------------------------------------------------------------------|
|-0-------------------1-------------------0-------------------1-------------------|
|---------------------------------------------------------------------------------|


  could wait      But Sunday'd be too late

  #   '   '   '   '   #   '   '   '   '
|-------------0---------------------------|
|-----------------1-----------------------|
|-------2---------------------------------|
|---------------------3-------------------|
|-0---------------------------------------|
|---------------------1-------------------|





PRE



  #   '   '   '   '   #   '   '   '   '   #   '   '   '   '   #   '   '   '   '
|-------3-------------------3-------------------3-------------------3-------------|
|-------3-------------------3-------------------3-------------------3-------------|
|-------0-------------------0-------------------0-------------------0-------------|
|-------0-------------------0-------------------0-------------------0-------------|
|-3-------------------3-------------------3-------------------3-------------------|
|---------------------------------------------------------------------------------|





VERSE 2 (2x) - while the 2nd time 2nd Guitar plays quick chords between the tempo signs



  The fact he's over six feet ten         Might instil fear in other men

  #   '   '   '   '   #   '   '   '   '   #   '   '   '   '   #   '   '   '   '
|-------3-------------------3-----------------------------------------------------|
|-------3-------------------3-------------------10------------------6-------------|
|-------0-------------------0-------------------8-------------------8-------------|
|-------0-------------------0-------------------8-------------------8-------------|
|-3-------------------3-------------------6---------------------------------------|
|-------------------------------------------------------------6-------------------|


  But not in me                           The mighty flea

  #   '   '   '   '   #   '   '   '   '   #   '   '   '   '   #   '   '   '   '
|-------7---------------------------------------5-------------------3-------------|
|---------------------------3---------------------------------------1-------------|
|-------4-------------------4-------------------2-------------------2-------------|
|-------5-------------------5-------------------3---------------------------------|
|---------------------------------------------------------------------------------|
|-3-------------------3-------------------1-------------------1-------------------|


  Ask if I am mouse or man                The mirror squeaked, away I ran

  #   '   '   '   '   #   '   '   '   '   #   '   '   '   '   #   '   '   '   '
|-------3-------------------3-----------------------------------------------------|
|-------3-------------------3-------------------10------------------6-------------|
|-------0-------------------0-------------------8-------------------8-------------|
|-------0-------------------0-------------------8-------------------8-------------|
|-3-------------------3-------------------6---------------------------------------|
|-------------------------------------------------------------6-------------------|


  He'll murder me                         in time for his tea

  #   '   '   '   '   #   '   '   '   '   #   '   '   '   '   #   '   '   '   '
|-------7-------------------------------------------------------------------------|
|---------------------------3-------------------8-------------------8-------------|
|-------4-------------------4-------------------8-------------------8-------------|
|-------5-------------------5-------------------8-------------------8-------------|
|---------------------------------------------------------------------------------|
|-3-------------------3-------------------0-------------------0-------------------|


  Does it bother me at all?               My rival is Neanderthal

  #   '   '   '   '   #   '   '   '   '   #   '   '   '   '   #   '   '   '   '
|-------3-------------------3-----------------------------------------------------|
|-------3-------------------3-------------------10------------------6-------------|
|-------0-------------------0-------------------8-------------------8-------------|
|-------0-------------------0-------------------8-------------------8-------------|
|-3-------------------3-------------------6---------------------------------------|
|-------------------------------------------------------------6-------------------|


  It makes me think                       Perhaps I need a drink

  #   '   '   '   '   #   '   '   '   '   #   '   '   '   '   #   '   '   '   '
|-------7---------------------------------------5-------------------3-------------|
|---------------------------3---------------------------------------1-------------|
|-------4-------------------4-------------------2-------------------2-------------|
|-------5-------------------5-------------------3---------------------------------|
|---------------------------------------------------------------------------------|
|-3-------------------3-------------------1-------------------1-------------------|


  I.Q. is no problem here                 We won't be playing Scrabble for

  #   '   '   '   '   #   '   '   '   '   #   '   '   '   '   #   '   '   '   '
|-------3-------------------3-----------------------------------------------------|
|-------3-------------------3-------------------10------------------6-------------|
|-------0-------------------0-------------------8-------------------8-------------|
|-------0-------------------0-------------------8-------------------8-------------|
|-3-------------------3-------------------6---------------------------------------|
|-------------------------------------------------------------6-------------------|


  Her hand, I fear                        I need that beer

  #   '   '   '   '   #   '   '   '   '   #   '   '   '   '   #   '   '   '   '
|-------7-------------------------------------------------------------------------|
|---------------------------3-------------------8-------------------8-------------|
|-------4-------------------4-------------------8-------------------8-------------|
|-------5-------------------5-------------------8-------------------8-------------|
|---------------------------------------------------------------------------------|
|-3-------------------3-------------------0-------------------0-------------------|




CHORUS 2



  Monday,             I could wait till   Tuesday          If I make up my

  #   '   '   '   '   #   '   '   '   '   #   '   '   '   '   #   '   '   '   '
|-------------------------------------------------------------------------0-------|
|-------------1-------------------1-------------------3-----------------------0---|
|-----------------2-------------------2-------------------0-----------------------|
|-------3-------------------2-----------------------------------------------------|
|-----------------------------------------------2-------------------2-------------|
|-1-------------------0-------------------3-------------------4-------------------|


  mind                Wedn'sday would be fine                 Thursday's on my

  #   '   '   '   '   #   '   '   '   '   #   '   '   '   '   #   '   '   '   '
|-------------0---------------------------------------3-------------------0-------|
|-----------------1---------------1-----------------------3-------------------3---|
|-------2-----------------------------2---------4---------------------------------|
|---------------------------3-----------------------------------------------------|
|-0-----------------------------------------------------------------2-------------|
|---------------------1-------------------3-------------------4-------------------|


  mind                Friday'd give me    time                Saturday

  #   '   '   '   '   #   '   '   '   '   #   '   '   '   '   #   '   '   '   '
|-------------0-------------------0-------------------0-------------------0-------|
|-----------------1-------------------1-------------------1-------------------1---|
|-------2-------------------3-------------------2-------------------3-------------|
|---------------------------------------------------------------------------------|
|-0-------------------1-------------------0-------------------1-------------------|
|---------------------------------------------------------------------------------|


  could wait      But Sunday'd be too late

  #   '   '   '   '   #   '   '   '   '
|-------------0---------------------------|
|-----------------1-----------------------|
|-------2---------------------------------|
|---------------------3-------------------|
|-0---------------------------------------|
|---------------------1-------------------|



  #   '   '   '   '   #   '   '   '   '   #   '   '   '   '   #   '   '   '   '
|-------3-------------------3-------------------3-------------------3-------------|
|-------3-------------------3-------------------3-------------------3-------------|
|-------0-------------------0-------------------0-------------------0-------------|
|-------0-------------------0-------------------0-------------------0-------------|
|-3-------------------3-------------------3-------------------3-------------------|
|---------------------------------------------------------------------------------|




BRIDGE



  Seven days                              will quickly go


  #   '   '   '   '   #   '   '   '   '   #   '   '   '   '   #   '   '   '   '
|-----------0-------------------0-------------------3-----------------3-----------|
|-------------3-------------------3-------------3-----3---3h5-------3---3---3h5---|
|-------5-----------5-------5-----------5-----5---------5---------5-------5-------|
|-----6-----------6-------6-----------6-------------------------------------------|
|---------------------------------------------------------------------------------|
|(4)-----------------(4)-----------------(3)-----------------(3)------------------|


  The fact remains,                       I love her so

  #   '   '   '   '   #   '   '   '   '   #   '   '   '   '   #   '   '   '   '
|-----------0-------------------0-------------------3-----------------3-----------|
|-------------3-------------------3-------------3-----3---3h5-------3---3---3h5---|
|-------5-----------5-------5-----------5-----5---------5---------5-------5-------|
|-----6-----------6-------6-----------6-------------------------------------------|
|---------------------------------------------------------------------------------|
|(4)-----------------(4)-----------------(3)-----------------(3)------------------|


  Seven days                              So many ways

  #   '   '   '   '   #   '   '   '   '   #   '   '   '   '   #   '   '   '   '
|-----------0-------------------0-------------------0-------------------0---------|
|-------------3-------------------3-------------------3-------------------3-------|
|-------5-----------5-------5-----------5-------5-------5---5-------5-------5---5-|
|-----6-----------6-------6-----------6-------7---7-------7-------7---7-------7---|
|---------------------------------------------------------------------------------|
|(4)-----------------(4)-----------------(1)-----------------(1)------------------|


  But I can't run away

  #   '   '   '   '   #   '   '   '   '   #   '   '   '   '   #   '   '   '   '
|-----------0-------------------0-------------------3-----------------3-----------|
|-------------3-------------------3-------------3-----3---3h5-------3---3---3h5---|
|-------5-----------5-------5-----------5-----5---------5---------5-------5-------|
|-----6-----------6-------6-----------6-------------------------------------------|
|---------------------------------------------------------------------------------|
|(4)-----------------(4)-----------------(3)-----------------(3)------------------|


  I can't run away

  #   '   '   '   '   #   '   '   '   '   #   '   '   '   '   #   '   '   '   '
|-----------0-------------------0-------------------3-----------------3-----------|
|-------------3-------------------3-------------3-----3---3h5-------3---3---3h5---|
|-------5-----------5-------5-----------5-----5---------5---------5-------5-------|
|-----6-----------6-------6-----------6-------------------------------------------|
|---------------------------------------------------------------------------------|
|(4)-----------------(4)-----------------(3)-----------------(3)------------------|



  #   '   '   '   '   #   '   '   '   '
|-----------3-----------------3-----------|
|-------3-----3---3h5-------3---3---3h5---|
|-----5---------5---------5-------5-------|
|-----------------------------------------|
|-----------------------------------------|
|(3)-----------------(3)------------------|





CHORUS 3 (2 guitars)



  Monday,             I could wait till   Tuesday          If I make up my

  #   '   '   '   '   #   '   '   '   '   #   '   '   '   '   #   '   '   '   '
|-------------------------------------------------------------------------0-------|
|-------------1-------------------1-------------------3-----------------------0---|
|-----------------2-------------------2-------------------0-----------------------|  
|-------3-------------------2-----------------------------------------------------|
|-----------------------------------------------2-------------------2-------------|
|-1-------------------0-------------------3-------------------4-------------------|
|
|
| #   '   '   '   '   #   '   '   '   '   #   '   '   '   '   #   '   '   '   '
|-------------8-------------------8-------------------7-------------------7-------|
|-------6-------------------10------------------8---------8---------9---------9---|
|-9---------------9---9---------------9---7-------------------9-------------------|  
|---------------------------------------------------------------------------------|
|---------------------------------------------------------------------------------|
|---------------------------------------------------------------------------------|


  mind                Wedn'sday would be fine                 Thursday's on my

  #   '   '   '   '   #   '   '   '   '   #   '   '   '   '   #   '   '   '   '
|-------------0---------------------------------------3-------------------0-------|
|-----------------1---------------1-----------------------3-------------------3---|
|-------2-----------------------------2---------4---------------------------------|  
|---------------------------3-----------------------------------------------------|
|-0-----------------------------------------------------------------2-------------|
|---------------------1-------------------3-------------------4-------------------|
|
|
| #   '   '   '   '   #   '   '   '   '   #   '   '   '   '   #   '   '   '   '
|-------------8-------------------8-------------------10------8-----------10------|
|-------10------------------10--------10--------12--------12--------12--------12--|
|-9---------------9---10------------------12--------------------------------------|  
|---------------------------------------------------------------------------------|
|---------------------------------------------------------------------------------|
|---------------------------------------------------------------------------------|


  mind                Friday'd give me    time                Saturday

  #   '   '   '   '   #   '   '   '   '   #   '   '   '   '   #   '   '   '   '
|-------------0-------------------0-------------------0-------------------0-------|
|-----------------1-------------------1-------------------1-------------------1---|
|-------2-------------------3-------------------2-------------------3-------------|  
|---------------------------------------------------------------------------------|
|-0-------------------1-------------------0-------------------1-------------------|
|---------------------------------------------------------------------------------|
|
|
| #   '   '   '   '   #   '   '   '   '   #   '   '   '   '   #   '   '   '   '
|-------------10------------------10------------------10------------------10------|
|-------11--------11--------11--------11--------11--------11--------11--------11--|
|-12------------------13------------------12------------------13------------------|  
|---------------------------------------------------------------------------------|
|---------------------------------------------------------------------------------|
|---------------------------------------------------------------------------------|


  could wait      But Sunday'd be too late

  #   '   '   '   '   #   '   '   '   '
|-------------0---------------------------|
|-----------------1-----------------------|
|-------2---------------------------------|  Guit 1
|---------------------3-------------------|
|-0---------------------------------------|
|---------------------1-------------------|
|
|
| #   '   '   '   '   #   '   '   '   '
|-------------10--------------------------|
|-------11--------11----------------------|
|-12------------------10------------------|  Guit 2
|---------------------12------------------|
|-----------------------------------------|
|-----------------------------------------|





ENDING


  #   '   '   '   '   #   '   '   '   '   #   '   '   '   '   #   '   '   '   '
|---3-----3-----3-----3-----3-----3-----3-----3-----3-----3-----3-----3-----3-----...
|---3-----3-----3-----3-----3-----3-----3-----3-----3-----3-----3-----3-----3-----...
|---0-----0-----0-----0-----0-----0-----0-----0-----0-----0-----0-----0-----0-----...
|---------------------------------------------------------------------------------...
|---------------------------------------------------------------------------------...
|---------------------------------------------------------------------------------...


i know, there is a variation on a chord, but i still don't know which is :D
Tap to rate this tab
# A B C D E F G H I J K L M N O P Q R S T U V W X Y Z