Song name
# A B C D E F G H I J K L M N O P Q R S T U V W X Y Z

Sting - La Belle Dame Sans Regrets tab

Artist: Sting
Album: Mercury Falling
Song: La Belle Dame Sans Regrets

We got the chords now, but not the beautiful tabs :) Here it is:

e||----------------|----------------|----------------|----------------|
B||11-----------11-|10-----------10-|10-----------10-|8-------------8-|
G|*----------------|----------------|----------------|----------------|
D|*----------------|----------------|----------------|----------------|
A||----------------|----------------|----------------|----------------|
E||----------------|----------------|----------------|----------------|

e|----------------|6-------------5-|8-------------7-|10-----------10\|
B|8-------------8-|----------------|----------------|----------------|
G|----------------|----------------|----------------|----------------|
D|----------------|----------------|----------------|----------------|
A|----------------|----------------|----------------|----------------|
E|----------------|----------------|----------------|----------------|

e|6-------------6-|5-------------5-|5--5--8--6--5---|----------------|
B|----------------|----------------|---------------8|--------------8-|
G|----------------|----------------|----------------|----------------|
D|----------------|----------------|----------------|----------------|
A|----------------|----------------|----------------|----------------|
E|----------------|----------------|----------------|----------------|
                   _________________________________ _________________
                   1.              |                 |2.              |
e|----------------|----------------|----------------||----------------|
B|8-------------8-|8-------------7-|8---------------||8-------------7-|
G|----------------|----------------|----------------*|----------------|
D|----------------|----------------|----------------*|----------------|
A|----------------|----------------|----------------||----------------|
E|----------------|----------------|----------------||----------------|

e|----------------|----------------|----------------|----------------|
B|7-------------7-|8---------------|----------------|----------------|
G|----------------|----------------|----------------|----------------|
D|----------------|----------------|----------------|----------------|
A|----------------|----------------|----------------|----------------|
E|----------------|----------------|----------------|----------------|


Well, thats all, actually. If there's some variations, i think tou can
hear them yourself, it isn't that hard :)

Enjoy!
Tap to rate this tab
# A B C D E F G H I J K L M N O P Q R S T U V W X Y Z