Song name
# A B C D E F G H I J K L M N O P Q R S T U V W X Y Z

Sting - Hounds Of Winter tab

This is the mix of the guitar and the bass line. I made it all by ear.

Intro :

-5---4---2---2---7---2---2---2------5---4---2---2---7---2---2---2-|
-5---4---3---2---7---3---0---2------5---4---3---2---7---3---0---2-|
-6---4---4---2---7---2---1---2------2---4---4---2---7---2---1---2-|
-7---4---4---4---7---4---2---4------2---4---4---4---7---4---2---4-|
-7---2---2---0---5---2---2---4------4---2---2---0---5---2---2---4-|
-5-----------------------0---2------------------------------0---2-|

Chorus :

-5----------------------------------5-----------------------2---2-|
-2---7---5---4---3---2---3---0------2---7---5---4---3---2---0---2-|
-2---4---2---1---2---2---2---1------2---4---2---1---2---2---1---2-|
-4---4---2---1---4---2---4---2------4---4---2---1---4---2---2---4-|
-4---5---4---2---2---0---2---2------4---5---4---2---2---0---2---4-|
-2---------------------------0------2-----------------------0---2-|

Bridge :

-------------5------5---4---2---2-|
-7---7---7---2------5---4---0---2-|
-9---6---6---2------2---4---1---2-|
-9---7---7---4------2---4---2---4-|
-7---6---5---4------4---2---2---4-|
-------------2--------------0---2-|

Solo guitar :

--------------------------------------------------------------------------|
--10-9v-------10-10h12v-10------------------------------------------------|
-9--------9h11------------11-9-9h11----TWO TIMES then---------------------|
--------------------------------------------------------------------------|
-------------------------------------------------------------7/9 let ring-|
--------------------------------------------------------------------------|


-------------------------------------------|
-----------10-------------10-12b--12b--12b-|
-------9-11----11h9--9--11-----------------|
-7-9-11------------11----------------------|
-------------------------------------------|
-------------------------------------------|

--------------------------------------------------------------------------|
-12b(14)12-10-12---12-10----------------10-9v-------10-10h12v-10----------|
------------------------11-----9h11----9--------9h11------------11-9-9h11-|
---------------------------9h11-------------------------------------------|
--------------------------------------------------------------------------|
--------------------------------------------------------------------------|

Tab by Roderick Fortin
Tap to rate this tab
# A B C D E F G H I J K L M N O P Q R S T U V W X Y Z