Song name
# A B C D E F G H I J K L M N O P Q R S T U V W X Y Z

Sting - Thousand Years tab

-------------------------------------------------------------------------------
                             A Thousand Years - Sting
-------------------------------------------------------------------------------
Tabbed by:adiiimooon
E-mail:adiiimooon@hotmail.com

The song includes too many different instruments , but here's the easiest way to play 
the effects as chords on guitar:

Tuning: STANDARD
                                     Intro

e|--------------------------------------------------------------------------|
B|--------------------------------------------------------------------------|
G|--------------------------------------6+----------------------------------|
D|-----8--6-8--6-8--6-8--6-8--6-8--6-8-9--9--8p6--------------6h8----6-8----|
A|----------------------------------------------9-8-6----6h8h9--------------|
E|--------------------------------------------------------------------------|

e|--------------------------------------------------------------------------|
B|--------------------------------------------------------------------------|
G|--------------------------------------6+----------------------------------|
D|-------------6-8--6-8--6-8--6-8--6-8-9--9--8p6--------------6h8----6-8----|
A|----------------------------------------------9-8-6-8--6h8h9--------------|
E|--------------------------------------------------------------------------|

e|--------------------------------------------------------------------------|
B|--------------------------------------------------------------------------|
G|--------------------------------------6+----------------------------------|
D|-------------6-8--6-8--6-8--6-8--6-8-9--9--8-6~----------------6h8----6-8-|
A|-------------------------------------------------9-8~-----6h8h9-----------|
E|--------------------------------------------------------------------------|

e|--------------------------------------------------------------------------|
B|--------------------------------------------------------------------------|
G|--------------------------------------6~+---------------------------------|
D|-------------6-8--6-8--6-8--6-8--6-8-9------9--8-6------------------------|
A|--------------------------------------------------------------------------|
E|--------------------------------------------------------------------------|
   A thousand years ... a thousand times...  to eternity
e|--4--------------------2-------------------1---------------1--------------|
B|--4--------------------4-------------------3---------------3--------------|
G|--4--------------------4-------------------3---------------3--------------|
D|--5--------------------4-------------------3------------1--0--------------|
A|--5--------------------2-------------------1---------------1--------------|
E|--4--------------------2-------------------1---------------x--------------|
 And it actually works like this through the whole song , at some times you can neglect 
the last part as you are strumming the chords non stopping just try it with the original 
a couple of times and you will get it ;D

Any editing is appreciated :)
also mama 7elwa
************************************

| H   hammer-on
| p   pull-off
| ~   vibrato
| +   harmonic
| x   Mute note

************************************
Tap to rate this tab
 
# A B C D E F G H I J K L M N O P Q R S T U V W X Y Z