Song name
# A B C D E F G H I J K L M N O P Q R S T U V W X Y Z

Sting - Until tab

Artist|Sting.
Song|Until.
Album|Kate & Leopold(Soundtrack).
Tabbed By|Toneie.

Play In 3/4 time(Waltz).

Intro|
E|------|------|------|------|
B|-00-00|-00-00|-00-00|-00---|
G|-00-00|-00-00|-00-00|-00-3-|
D|-22-22|-22-22|-22-22|-22-2-|
A|------|------|------|----44|
E|0--0--|0--0--|0--0--|0--2--|

Verse#1|"If i could"
E||:------|------|------|------|------|------|------|------:||
B||:-33-33|------|-55---|-33-33|------|-55-55|------|------:||
G||:-44-22|-44-44|-44-33|-44-44|-44-44|-44-44|-33-44|-33-33:||
D||:-44-44|-55-55|-55-44|-44-44|-55-55|-55-55|-44-55|-44-22:||
A||:2-----|-55-55|4---44|2-----|-55-55|4--4--|-444--|-44-44:||
E||:---5--|3--3--|---2--|---5--|3--3--|------|2-----|2--2--:||

Bridge#1|"Here in your arms"
E||:------|------|------|------|------|------|------|------:||
B||:-88-88|-88---|-77-55|----77|-33-33|------|----55|------:||
G||:-99-77|-99-66|-66-66|-77-77|-44-44|-44-44|-33-44|-33-33:||
D||:-99-99|-77-77|-77-77|-99-77|-44-44|-33-33|-44-55|-44-22:||
A||:7-----|----77|5-----|-99---|------|-55-55|-444--|-44-44:||
E||:--10--|9--5--|---9--|7--5--|4--4--|3--3--|2-----|2--2--:||

"If i caught"                   "Until the"            "Until"                                   
E|------|------|------|------|------|------|------|------|------|------|
B|-33-33|------|-55---|-33-33|------|-55-55|-33-33|------|------|------|
G|-44-22|-44-44|-44-33|-44-44|-44-44|-44-44|-44-44|-44-44|-44-44|-44-44|
D|-44-44|-55-55|-55-44|-44-44|-55-55|-55-55|-44-44|-44-44|-55-55|-55-55|
A|2-----|-55-55|4---44|2-----|-55-55|4--4--|2--2--|-55-55|-55-55|-55-55|
E|---5--|3--3--|---2--|---5--|3--3--|------|------|4--4--|3--3--|3--3--|

Verse#2|"One day you`ll"
E||:------|------|------|------|------|------|------|------:||
B||:-44-44|------|-66---|-44-44|------|-66-66|----66|------:||
G||:-55-33|-55-55|-55-44|-55-55|-55-55|-55-55|-44-55|-44-44:||
D||:-55-55|-66-66|-66-55|-55-55|-66-66|-66-66|-55-66|-55-33:||
A||:3-----|-66-66|5---55|3-----|-66-66|5--5--|-555--|-55-55:||
E||:---6--|4--4--|---3--|---6--|4--4--|------|3-----|3--3--:||

Bridge#2|"Your arms where the"                          1st
E||:-----------|---------|-------|--------|------|------|------|------:||
B||:-9-9---9-9-|---------|-88--66|------88|-44-44|------|----66|------:||
G||:-1010--8-8-|--9-9--77|-77--77|-8-8--88|-55-55|-55-55|-44-55|-44-44:||
D||:-1010--1010|--1010-88|-88--88|-8-8--88|-55-55|-44-44|-55-66|-55-33:||
A||:8----------|--8-8--88|6------|-1010---|------|-66-66|-555--|-55-55:||
E||:-----11----|10----6--|---10--|8----6--|5--5--|4--4--|3-----|3--3--:||

 2nd"Dancing`s end"
E|------|------|------|------|
B|---666|---666|---666|66666-|
G|-44555|-44555|-44555|555554|
D|-55666|-55666|-55666|666663|
A|-55---|-55---|-55---|-----5|
E|3-----|3-----|3-----|------|

 "O` and if i caught the"        "Until"
E|------|------|------|------|------|------|------|------|------|
B|-44-44|------|-66---|-44-44|------|-66-66|-44-44|------|------|
G|-55-33|-55-55|-55-44|-55-55|-55-55|-55-55|-55-55|-55-55|-55-55|
D|-55-55|-66-66|-66-55|-55-55|-66-66|-66-66|-55-55|-55-55|-66-66|
A|3-----|-66-66|5---55|3-----|-66-66|5--5--|3--3--|-66-66|-66-66|
E|---6--|4--4--|---3--|---6--|4--4--|------|------|5--5--|4--4--|
                                            "Untiiiil"
E|------|------|------|------|------|------|------|------|------|
B|-66-66|-44-44|------|------|-66---|-44-44|------|------|-66-66|
G|-55-55|-55-55|-55-55|-55-55|-55-44|-55-55|-55-55|-55-55|-55-44|
D|-66-66|-55-55|-66-66|-66-66|-66-55|-55-55|-55-55|-44-44|-66-55|
A|5--5--|3--3--|-55-55|-66-66|5---55|3--3--|-66-66|-66-66|5---55|
E|------|------|5--5--|4--4--|---3--|------|5--5--|4--4--|---3--|

E|------------3|8------------|
B|----4-343----|8------------|
G|----------5--|8------------|
D|--5----------|10-----------|
A|3------------|10-----------|
E|-------------|8------------|

Tap to rate this tab
# A B C D E F G H I J K L M N O P Q R S T U V W X Y Z