Song name
# A B C D E F G H I J K L M N O P Q R S T U V W X Y Z

Sting - I Was Brought To My Senses tab

Artist: Sting
Album: Mercury Falling
Song: I Was Brought To My Senses

Such a shame we don't have the tabs of I Was Brouhgt To My Senses,
when it's such a great song. Anyways here it is :)

It's in 7/4. Bit tricky rythm, but it's nice!
                                   _____________________________
                                   1 & 2
  G              C      D(sus4)    Em     Bm6     C      D(sus4)
e|---3------3---|---0------3-2-|  |---3----------|---0------3-2-|
B|--3-3-------3-|--1-1---------|  |--3-3-----2---|--1-1---------|
G|-0---0---0----|-0---0---2----|  |-0---0------0-|-0---0---2----|
D|--------------|-------0------|  |2--------4----|-------0------|
A|-------2------|3-------------|  |-------2------|3-------------|
E|3-------------|--------------|  |--------------|--------------| Back to G

After this^^ Jump to 1, 2, 3, 4.
 ____________________________________________________________ 
 3 & 4
 B7(#6)  Em
e|---3-2----3-0-|---0------3-2-|
B|--0-0----0----|--1-1---------|
G|-0------------|-0---0---2----|
D|1------2------|-------0------|
A|--------------|3-------------|
E|--------------|--------------| Back to G

When you've played number 4, go to chorus:
      Em7     Dm7
I was brought
       Cmaj7  B7+
To my senses
      Em7     Dm7
I was blind
       Cmaj7   B7+
But now I can see
       Em7   Dm7        F#m7b5    B7+(fig.2)
Every sign-----post in na---------ture
     C9  A9  F#9  F9
Said you be--long to me


Chords:
Em7.......:X 7 9 7 8 7
Dm7.......:X 5 7 5 6 5
Cmaj7.....:X 3 5 4 5 3
B7+.......:X 2 4 2 4 3
F#m7b5....:X 9 10 9 10
B7+(fig.2):7 9 7 8 8 7
C9........:8 10 8 9 8 10
A9........:5 7 5 4 5 7
F#9.......:2 4 2 3 2 4
F9........:1 3 1 2 1 3

Enjoy ;D
Tap to rate this tab
# A B C D E F G H I J K L M N O P Q R S T U V W X Y Z