Song name
# A B C D E F G H I J K L M N O P Q R S T U V W X Y Z

Sting - The Dream Of The Blue Turtles tab

Help us improve GuitareTab! Take a short survey!
Title: The dream of the blue turtles
Album: The dream of the blue turtles
Artist: Sting

Transcribed by BennyBengo

e----------------------------------------------|
B----------------------------------------------|
G----7---6-------------------------------------|
D--5---5------10---9----8---7-------7-6p5------|   x2
A-----------8----8----6---6---6-5-5-------8-5--|
E----------------------------------------------|


e------------------------------|
B--6-6---4-5-5--3-3-2-1---1----|
G------7----------------3---0--|
D------------------------------| x2
A------------------------------|
E------------------------------|


e----------------------------------------|
B--6-6---4-5-5---4-2-1-----2-2-1---------|
G------7---------------3---------3-2-----|
D------------------------3-----------4---| x2
A----------------------------------------|
E----------------------------------------|
Related for The Dream Of The Blue Turtles tab