Song name
# A B C D E F G H I J K L M N O P Q R S T U V W X Y Z

Stir - Stop Killing Me tab

t. See http://www.olga.net/faq/ for more information.                     #
#-----------------------------------------------------------------------------#

Date: Sat, 11 Mar 2000 23:07:48 -0500
From: RDDSL@aol.com
Subject: stir/stop_killing_me.crd

This is track seven on Stirs new cd "Holy Dogs".  It's an awesome song.

Drop d tuning
intro: clean guitar
e---------------------------------------------------------
B---------------------------------------------------------
G--------------------------------------------------------
D-5-5-5-7-7-7-7-7-9-9-9-7-7-7-7-5-5-5-7-7-7-4-4-4-5-5-5
A-5-5-5-7-7-7-7-7-9-9-9-7-7-7-7-5-5-5-7-7-7-4-4-4-5-5-5
d-5-5-5-7-7-7-7-7-9-9-9-7-7-7-7-5-5-5-7-7-7-4-4-4-5-5-5

That's played during vocal also

Chorus: same chords, only heavy distorsion, as much as you can get

Solo: heavy distorsion

e------------------------------------------------------------------
B-9p7h9--------7p5h7------5p3h5------------------------
G-----------7b-------------5b----------------3b(let ring)----6p0h6p0h6
D-----------------------------------------------------------------------------
A---------------------------------------------------------------------------
d---------------------------------------------------------------------------

Intro/vocal
Chorus
Intro/vocal
Chorus
Solo
Chorus

This is a great song to play.  If you haven't done so already, go buy both 
Stir CD's, they're awesome.  This is my own creation of tab, it should be 
very accurate, however, better than some of my other submissions.  Long live 
the St. Louis music scene.   

David Shenefelt, St. Louis, MO
Tap to rate this tab
# A B C D E F G H I J K L M N O P Q R S T U V W X Y Z