Song name
# A B C D E F G H I J K L M N O P Q R S T U V W X Y Z

Stoerte Priester - Ein Lied Das Dich Liebt tab

It's just the acoustic part

Capo 3. fret

h = hammer on

                                               h
E-----0-----------0------------3------------2--3-----------------------------------------------|
B--------0-----------1------------0----------------3-------------------------------------------|
G-----------0-----------0------------0----------------2----------------------------------------|
D----------------------------------------------------------------------------------------------|
A--------------3-------------------------0-----------------------------------------------------|
E-0-------------------------3------------------------------------------------------------------|

                                               repeat 3 times |
E-----3------3------3------3------3------3------3------3------|-----0------0------0------0-----|
B-------------------------------------------------------------|--------------------------------|
G-------------------------------------------------------------|--------------------------------|
D-------------------------------------------------------------|--------------------------------|
A-3------3------3------3------2------2------2------2----------|--------------------------------|
E-------------------------------------------------------------|--0------0------0------0--------|

                                               h
E-----0-----------0------------3------------2--3-----------------------------------------------|
B--------0-----------1------------0----------------3-------------------------------------------|
G-----------0-----------0------------0----------------2----------------------------------------|
D----------------------------------------------------------------------------------------------|
A--------------3-------------------------0-----------------------------------------------------|
E-0-------------------------3------------------------------------------------------------------|

Em  C  G  D

E----------------------------------------------------------------------------------------------|
B----------------------------------------------------------------------------------------------|
G---------------------------------------------------5--5--5--5--5--5--5--5---------------------|
D-2--2--2--2--2--2--2--2---2--2--2--2--2--2--2--2---5--5--5--5--5--5--5--5---------------------|
A-3--3--3--3--3--3--3--3---2--2--2--2--2--2--2--2----------------------------------------------|
E----------------------------------------------------------------------------------------------|

Em  C  G  D

                                               repeat 3 times |
E-----3------3------3------3------3------3------3------3------|-----0------0------0------0-----|
B-------------------------------------------------------------|--------------------------------|
G-------------------------------------------------------------|--------------------------------|
D-------------------------------------------------------------|--------------------------------|
A-3------3------3------3------2------2------2------2----------|--------------------------------|
E-------------------------------------------------------------|--0------0------0------0--------|

Em


It's one of my first tabs but it sounds quite right to me. If there are improvements 
please don't hesitate to write a mail to tschaesy@web.de.

Have fun!
Tap to rate this tab
# A B C D E F G H I J K L M N O P Q R S T U V W X Y Z