Song name
# A B C D E F G H I J K L M N O P Q R S T U V W X Y Z

Stolen Babies - Push Button tab

www.stolenbabiestheband.com

-------------------------------------------------------------------------------
			   PUSH BUTTON - Stolen Babies
-------------------------------------------------------------------------------

Tabbed by: Tyler Greig

Email: gtheleadguitarist@hotmail.com

| /  slide up
| \  slide down
| h  hammer-on
| p  pull-off
| ~  let ring
| +  harmonic
| x  Mute note/scratch


Tuning: standard

Hey I don't know if these guys primarily use standard tuning, but thats how I'm
tabbing this song. I saw them last night with Lacuna Coil and they were great,
I picked up their album and they all signed it for me. Great band, hope you enjoy the tab.


Intro
e|----------------------|
B|----------------------|
G|-7-7-7-7-7------------|
D|-7-7-7-7-7--6-6-6-6-6-|
A|-5-5-5-5-5--6-6-6-6-6-|
E|------------4-4-4-4-4-|x4

Verse (slight Palm Mute)
e|----------------------|
B|----------------------|
G|----------------------|
D|-4-4-4-4-4--6-6-6-6-6-|
A|----------------------|
E|----------------------|x8

Chorus (it ends early the first time- listen to the song and you'll get it)
e|-------------------------------------------|
B|-------------------------------------------|
G|-------------------------------------------|
D|-77777777-88888888-7-777-7-777-8-888-8-888-|
A|-77777777-88888888-7-777-7-777-8-888-8-888-|
E|-55555555-66666666-5-555-5-555-6-666-6-666-|x2
PM                     ...   ...   ...   ...

Intro
Verse
Chorus

Post-chorus
e|-------------------------------------|
B|-------------------------------------|
G|----------------------------66666666-|
D|-77777777-55555555-22222222-66666666-|
A|-77777777-55555555-22222222-44444444-|
E|-55555555-33333333-00000000----------|x2

Bridge (time change)
e|-------------------------------------------------------------|
B|-------------------------------------------------------------|
G|-7777-7777-777777xx-7777-7777-7777-7777-777777xx-7777-7777xx-|
D|-6666-6666-666666xx-6666-6666-6666-6666-666666xx-6666-6666xx-|
A|-5555-5555-555555xx-5555-5555-5555-5555-555555xx-5555-5555xx-|
E|-------------------------------------------------------------|

Bridge part 2
e|-------------------------------------------|
B|-------------------------------------------|
G|-------------------------------------------|
D|-7-7-777-8-8-888-11-11-111111-12-12-1212-8-|
A|-x-x-xxx-x-x-xxx--x--x--x-x-x--x--x--x-x-x-|
E|-5-5-555-6-6-666--9--9--9-9-9-10-10-1010-6-|x2

e|---------------------------------|
B|---------------------------------|
G|-------------------------6-6-666-|
D|-7-7-777-5-5-555-2-2-222-x-x-xxx-|
A|-x-x-xxx-x-x-xxx-x-x-xxx-4-4-444-|
E|-5-5-555-3-3-333-0-0-000---------|x2

Clean
e|---------------------|
B|---------------------|
G|-7-7-7-7-7-----------|
D|-7-7-7-7-7-6-6-6-6-6-|
A|-5-5-5-5-5-6-6-6-6-6-|
E|-----------4-4-4-4-4-|x2

Intro x8
Chorus

Fast Post-chorus
e|---------------------------------------------------------------------|
B|---------------------------------------------------------------------|
G|----------------------------------------------------6666666666666666-|
D|-7777777777777777-5555555555555555-2222222222222222-6666666666666666-|
A|-7777777777777777-5555555555555555-2222222222222222-4444444444444444-|
E|-5555555555555555-3333333333333333-0000000000000000------------------|

Bridge


Thats the song! Enjoy!

===============================================================================
Tap to rate this tab
 
# A B C D E F G H I J K L M N O P Q R S T U V W X Y Z